PrimaNota.ru - самый крупный в мире бесплатный архив песенных текстов, аккордов, табулатур и нот


Daft Punk - Tron Overture - таба, видео

Регистрация Запомнить меня
Войти через:  Facebook Google Twitter Vk Yandex Mail.ru

Daft Punk - Tron Overture - таба, видео

Печатать
Просмотров: 78
-------------------------------------------------------------------------------
                             TRON LEGACY OVERTURE - Band Name
-------------------------------------------------------------------------------
Tabbed by:Kekematthews
E-mail:

Tuning:capo on fourth to make this tab extremely easy, sutain every last note, play every other
note as an eighth note

e|---------|------------|-----------|-----------|--------------|------------|
B|--4--11--|--4--11--9--|--4--9--7--|--4--7--6--|--7--4--7-----|------------|
G|---------|------------|-----------|-----------|--------------|------------|
D|---------|------------|-----------|-----------|-----------6--|------------|
A|---------|------------|-----------|-----------|--------------|---------6--|
E|---------|------------|-----------|-----------|--------------|--4--6------|

This can be repeated for the full version
Also repeat first measure 3 times

************************************

| /   slide up
| \   slide down
| h   hammer-on
| p   pull-off
| ~   vibrato
| +   harmonic
| x   Mute note
| b   Bend
| pb  Pre-bend
| br  Bend release
| pbr Pre-bend release
| brb Bend release bend

************************************
Добавлено: 13.06.2016
Другие материалы по этой песне:
  • Аккорды и текст

Страница создана 13.06.2016
http://primanota.ru/daft-punk/tron-overture-chords.htm
Привет, Гость.
Предлагаем пройти революционный курс по гитаре.
Подарок от PrimaNota.Ru, забирай!