PrimaNota.ru - самый крупный в мире бесплатный архив песенных текстов, аккордов, табулатур и нот


Daft Punk - Around The World - аккорды и текст, таба, бас-таба, видео

Регистрация Запомнить меня
Войти через:  Facebook Google Twitter Vk Yandex Mail.ru

Daft Punk - Around The World - аккорды и текст, таба, бас-таба, видео

Печатать
Просмотров: 751
Уроки эстрадного вокала в Санкт-Петербурге
Авторы музыки: Thomas Bangalter, Guy-Manuel de Homem-Christo

Around The World
Daft Punk
G-----------------------------------------------------
D-----------------------------------------------------
A-2-2-2-1-2-3-2-2-2-1-3-4-5-7-------------------------
E-----------------------------------------------------

VERSE 2

G---------1-------------------------------------------
D-------1---------------------------------------------
A-0-0-0-----------------1----------------------------
E----------0-0-0-0-0-0-0---0-0-0-8HOLD

ENDING
G-2-2-2-2-2-2-2-2-2-2-------------2-2-2-2-2-2-2-11-
D---------------------2-2-2-2-2-2------------------
A--------------------------------------------------
E--------------------------------------------------5 HOLD FOR 4 BEATS

TYBALT AND THE BUTT PIRATES ARE STILL IN THE PROCESS OF FORMING
THIS IS THEIR FIRST SONG. (NO GUTAR TABS AVABILE) YET
Добавлено: 31.07.2012
Другие материалы по этой песне:

Страница создана 30.03.2012
http://primanota.ru/daft-punk/around-the-world-chords.htm
Привет, Гость.
Предлагаем пройти революционный курс по гитаре.
Подарок от PrimaNota.Ru, забирай!