PrimaNota.ru - самый крупный в мире бесплатный архив песенных текстов, аккордов, табулатур и нот


Curtis Stigers - This Life - таба, видео

Регистрация Запомнить меня
Войти через:  Facebook Google Twitter Vk Yandex Mail.ru

Curtis Stigers - This Life - таба, видео

Печатать
Просмотров: 275
-------------------------------------------------------------------------------
        This Life (SOA Theme) - Curtis Stigers and the Forest Rangers
-------------------------------------------------------------------------------
Tabbed by: Nick Muska

Tuning: Open Gb for some reason
Db-Gb-Db-Gb-Bb-Db

*This is the shortened theme from the TV show ONLY. I'm hoping to post the full song soon
As far as guitar it is basically three looped and layered parts.

Acoustic Part-

Ridin through this world
|----------------------0-0-0-0-0--0--------------------------------------------------|
|----------------------3-3-3-3-3--3--------------------------------------------------|
|----------------------0-0-0-0-0--0--------------------------------------------------|
|----------------------0-0-0-0-3b-0--------------------------------------------------|
|----------------------0-0-0-0-0--0--------------------------------------------------|
|------------------------------------------------------------------------------------|

             All Alone
|----------------------0-0-0-0-0--0--------------------------------------------------|
|----------------------3-3-3-3-3--3--------------------------------------------------|
|----------------------0-0-0-0-0--0--------------------------------------------------|
|----------------------0-0-0-0-3b-0--------------------------------------------------|
|----------------------0-0-0-0-0--0--------------------------------------------------|
|------------------------------------------------------------------------------------|
   God Takes Your Soul
|----------------------0-0-0-0-0--0--------------------------------------------------|
|----------------------3-3-3-3-3--3--------------------------------------------------|
|----------------------0-0-0-0-0--0--------------------------------------------------|
|----------------------0-0-0-0-3b-0--------------------------------------------------|
|----------------------0-0-0-0-0--0--------------------------------------------------|
|------------------------------------------------------------------------------------|
     You're On Your Own
|----------------------0-0-0-0-0--0--------------------------------------------------|
|----------------------3-3-3-3-3--3--------------------------------------------------|
|----------------------0-0-0-0-0--0--------------------------------------------------|
|----------------------0-0-0-0-3b-0--------------------------------------------------|
|----------------------0-0-0-0-0--0--------------------------------------------------|
|------------------------------------------------------------------------------------|

Electric 1 Part

The crow flies straight
|--------------------------------------------------------------------------------------|
|--------------------------------------------------------------------------------------|
|--------------------------------------------------------------------------------------|
|---------------------------------2b-2-0-----------------------------------------------|
|-----------------------5b-5b-3-0--------0-3-0-----------------------------------------|
|--------------------------------------------------------------------------------------|

         A perfect line
|--------------------------------------------------------------------------------------|
|--------------------------------------------------------------------------------------|
|--------------------------------------------------------------------------------------|
|---------------------------------2b-2-0-----------------------------------------------|
|-----------------------5b-5b-3-0--------0-3-0-----------------------------------------|
|--------------------------------------------------------------------------------------|

       On the Devils Path
|--------------------------------------------------------------------------------------|
|--------------------------------------------------------------------------------------|
|--------------------------------------------------------------------------------------|
|---------------------------------2b-2-0-----------------------------------------------|
|-----------------------5b-5b-3-0--------0-3-0-----------------------------------------|
|--------------------------------------------------------------------------------------|

          Until you die
|------------------------------------------------------------0---------|
|------------------------------------------------------------1---------|
|------------------------------------------------------------2----0----|
|---------------------------------2b-2-0---------------------3----5/7--|
|-----------------------5b-5b-3-0--------0-3-0----5b-5b-3-0--0----0----|
|----------------------------------------------------------------------|

(Electric 2 Part w/ Wah)

Gotta look this life
|-------------------------------------------------------------------------------------|
|-----------------------------5b-5-3--------------------------------------------------|
|-------------------5b-5b-3-0--------0-3-0--------------------------------------------|
|-------------------------------------------------------------------------------------|
|-------------------------------------------------------------------------------------|
|-------------------------------------------------------------------------------------|
|-------------------------------------------------------------------------------------|

         In the Eye                      *Acoustic Ending
|------------------------------------|---------------0-----------------------------|
|------------------------------------|---------------0-----------------------------|
|-------------------5b-5b-3-0--3-0---|-----3-0-------0-----------------------------|
|------------------------------------|---------3-0---0-----------------------------|
|------------------------------------|-------------3-0-----------------------------|
|------------------------------------|---------------------------------------------|
|------------------------------------|---------------------------------------------|


************************************
| /   slide up
| b   Bend
************************************

Anarchism... stands for liberation of the human mind from the dominion of religion;
the liberation of the human body from the dominion of property;
liberation from shackles and restraint of government.
It stands for social order based on the free grouping of individuals.
- Emma Goldman (and John Teller)
Добавлено: 31.07.2015
Другие материалы по этой песне:

Страница создана 26.07.2014
http://primanota.ru/curtis-stigers/this-life-chords.htm
Привет, Гость.
Предлагаем пройти революционный курс по гитаре.
Подарок от PrimaNota.Ru, забирай!