PrimaNota.ru - самый крупный в мире бесплатный архив песенных текстов, аккордов, табулатур и нот


Cure - To The Sky - текст песни, бас-таба, видео

Регистрация Запомнить меня
Войти через:  Facebook Google Twitter Vk Yandex Mail.ru

Cure - To The Sky - текст песни, бас-таба, видео

Печатать
Просмотров: 211
Artist: The Cure
Title: To The Sky (Stranger Than Fiction Mix)
Tabbed by Chipstar

0:12  Cello part
G|----------------------------------------------------------------------|
D|--77-66-44-----------77-66-44-----------77-66-44----------------------|
A|-----------44-5-5-77----------44-5-5-77----------44-5-5-77------------|
E|----------------------------------------------------------------------|

0:33  Bass begins
G|----------------------------------------------------------------------|
D|--------44-67------------77---------44-67-----------------------------|
A|-----45-------55-455-455---------45-------55-455-455------------------|
E|--55--------------------------55---------------------55---------------|


G|----------------------------------------------------------------------|
D|--------44-67----------------------------44-67------------------------|
A|-----45-------55-455-455-77777-5------45-------55-455-455-------------|
E|--55----------------------------5---55---------------------55---------|

1:43   And in my dreams I was a child...
G|----------------------------------------------------------------------|
D|----------------------------------------------------------------------|
A|--------4------4575------4------454--4-55555-4------------------------|
E|----55-7---55-7------55-7---55-7--------------------------------------|

2:18   Oh, oh, oh...
G|----------------------------------------------------------------------|
D|----------------------------------------------------------------------|
A|----------------------4-55555-4-----------------------4-55555-4-------|
E|--55-54545--55-54545--------------55-54545--55-54545------------------|

2:52
G|----------------------------------------------------------------------|
D|--------44-67------------77---------44-67-----------------------------|
A|-----45-------55-455-455---------45-------55-455-455------------------|
E|--55--------------------------55---------------------55---------------|


G|----------------------------------------------------------------------|
D|--------44-67----------------------------44-67------------------------|
A|-----45-------55-455-455-77777-5------45-------55-455-455-------------|
E|--55----------------------------5---55---------------------55---------|

4:01   And in my dreams I was a child...
G|----------------------------------------------------------------------|
D|----------------------------------------------------------------------|
A|--------4------4575------4------454--4-55555-4------------------------|
E|----55-7---55-7------55-7---55-7--------------------------------------|

4:35   Oh, oh, oh...
G|----------------------------------------------------------------------|
D|----------------------------------------------------------------------|
A|----------------------4-55555-4-----------------------4-55555-4-------|
E|--55-54545--55-54545--------------55-54545--55-54545------------------|

G|----------------------------------------------------------------------|
D|----------------------------------------------------------------------|
A|-----------------45554--------------------45554-----------------------|
E|--55-54545--55-57-------55-54545--55-54545----------------------------|
Добавлено: 23.05.2012
Другие материалы по этой песне:
  • Аккорды и текст

Страница создана 28.04.2012
http://primanota.ru/cure/to-the-sky-chords.htm
Привет, Гость.
Предлагаем пройти революционный курс по гитаре.
Подарок от PrimaNota.Ru, забирай!