PrimaNota.ru - самый крупный в мире бесплатный архив песенных текстов, аккордов, табулатур и нот


Crowded House - Recurring Dream - таба, видео

Регистрация Запомнить меня
Войти через:  Facebook Google Twitter Vk Yandex Mail.ru

Crowded House - Recurring Dream - таба, видео

Печатать
Просмотров: 139
Please people, add some more as I am going to, this band were/are amazing!

Fig 1

       D  Dsus2 C         G
e|------------------------------------------------|
B|--------8-7---5-------------3----------3--------|
G|-----7-----------5-------------4----------4-----|
D|---7---------------5------5----------5----------|
A|-------------------------5----------5-----------|
E|------------------------------------------------|

Fig 2
       A
e|----------------------------------|
B|----------5----------5------------|
G|------------6----------6----------|
D|-------7----------7---------------|
A|----7----------7------------------|
E|----------------------------------|


Fig 3
      D              A
e|---------------------------------------------|
B|--------8-7-----------5------------5---------|
G|-----7-------------------6------------6------|
D|--7----------------7------------7------------|
A|-----------------7------------7--------------|
E|---------------------------------------------|

Fig 4
      D
e|----------------------------------------------|
B|---------8-7-------7----------7---------------|
G|------7----------7---7-----7----7-------------|
D|---7----------7----------7--------------------|
A|----------------------------------------------|
E|----------------------------------------------|

Intro:

Fig 1 x7 Fig 2 x1
Then strum D 4 times.

Verse 1:

Fig 1 x7 Fig 2 x2

Interlude:

Fig 3 x3 Fig 4 x1 (Whole thing played twice)

Strum D four times then strum G once

Then G D x4

Solo:
V=vibrato

Chords  Em D Em A

e|-------------------------------------------------|
B|---8v-7v-10v-----7v-8v-7v-7v---------------------|
G|-------------------------------------------------|
D|-------------------------------------------------|
A|-------------------------------------------------|
E|-------------------------------------------------|

e|---------------------------------------------------|
B|---8v-7v-10v-----7v-8v-7v-5v-----------------------|
G|---------------------------------------------------|
D|---------------------------------------------------|
A|---------------------------------------------------|
E|---------------------------------------------------|

D         C
Within myself
                   G
There are a million things


End: (just picked g chord)

e|-----------------------------------------------------|
B|--------3------------3-------------------------------|
G|----------4------------4-----------------------------|
D|-----5------------5----------------------------------|
A|---5-----------5-------------------------------------|
E|-----------------------------------------------------|

Fig 1 x7 End x1  Then end on a strummed G Chord
Добавлено: 28.04.2012
Другие материалы по этой песне:

Страница создана 28.04.2012
http://primanota.ru/crowded-house/recurring-dream-chords.htm
Привет, Гость.
Предлагаем пройти революционный курс по гитаре.
Подарок от PrimaNota.Ru, забирай!