PrimaNota.ru - самый крупный в мире бесплатный архив песенных текстов, аккордов, табулатур и нот


Crosses - †hholyghs† - текст песни, таба, видео

Регистрация Запомнить меня
Войти через:  Facebook Google Twitter Vk Yandex Mail.ru

Crosses - †hholyghs† - текст песни, таба, видео

Печатать
Просмотров: 157
-------------------------------------------------------------------------------
                             †hholyghs† - Crosses
-------------------------------------------------------------------------------
Tabbed by:
E-mail:

Tuning: Standard

Intro:

e|------------------------------------------------------|
B|------------------------------------------------------|
G|------------------------------------------------------|
D|------------------------------------------------------|  
A|-0--7-7--0--8-8-7-----8-8-----10-10-8-10--------------|
E|-------------------6-------6--------------------------|

Verse: 
Synth (Guitar keeps playing Intro)

e|-12------9-----------------12-------10---|
B|------------------11---------------------|
G|-----------------------------------------|    x2
D|-----------------------------------------|
A|-----------------------------------------|
E|-----------------------------------------|

Chorus riff in between verses:

e|-----------------------------------------|
B|-----------------------------------------|
G|--------5--------------9-----------------|    x1
D|-3------5------5-------9-----------------|
A|-3------3------5-------7-----------------|
E|-1-------------3-------------------------|

Verse x4

Chorus:

e|-----------------------------------------|
B|-----------------------------------------|
G|--------5--------------9-----------------|    x2
D|-3------5------5-------9-----------------|
A|-3------3------5-------7-----------------|
E|-1-------------3-------------------------|

e|------------------------------------------------------|
B|------------------------------------------------------|
G|-----------5--------------------9---------------------|    x2
D|-3---------5--(x8)---5----------9--(x16)--------------|
A|-3--(x16)--3---------5--(x8)----7---------------------|
E|-1-------------------3--------------------------------|


e|-------------|
B|-------------|
G|--4----------|
D|--2-(x16)----|
A|--2----------|
E|-------------|

Verse

Chorus 


************************************

| /   slide up
| \   slide down
| h   hammer-on
| p   pull-off
| ~   vibrato
| +   harmonic
| x   Mute note
| b   Bend
| pb  Pre-bend
| br  Bend release
| pbr Pre-bend release
| brb Bend release bend

************************************
Добавлено: 11.08.2015
Другие материалы по этой песне:
  • Аккорды и текст

Страница создана 23.10.2013
http://primanota.ru/crosses/hholyghs-chords.htm
Привет, Гость.
Предлагаем пройти революционный курс по гитаре.
Подарок от PrimaNota.Ru, забирай!