PrimaNota.ru - самый крупный в мире бесплатный архив песенных текстов, аккордов, табулатур и нот


Crematory - Fallen - текст песни, таба, видео

Регистрация Запомнить меня
Войти через:  Facebook Google Twitter Vk Yandex Mail.ru

Crematory - Fallen - текст песни, таба, видео

Печатать
Просмотров: 564
Tabbed by : Nicolas De Beer (im from South Africa)(in u have bands that sound the same 
crematory plzzz let me know)
Crematory - the fallen

Standard Tuning

riff a (00:23)

e---------------------|
B---------------------|
G--------3---5---3----|
D----5---3---5---3----|
A----5---1---3---1----|   i didn't put palm mute in the beginning (use it as u like),
E----3----------------|   listen how many times u have to play this riff.
                         this is just the base of the first riff
                         (normally u would play these powerchords alot more
                         ((to much effort to listen))

riff a (01:44) x4

interlude  (02:07)

e------------------------------------------------------------------------------------|
B------------------------------------------------------------------------------------|
G------------------------------------------------------------------------------------|
D---3---3-3-3---3-3-3---3-3--------------3---3-3-3---3-3-3---3-3---------------------|
A---3---3-3-3---3-3-3---3-3--------------3---3-3-3---3-3-3---3-3---------------------|
E---3---3-3-3---3-3-3---3-3----666-666---3---3-3-3---3-3-3---3-3----666-666----------|
    .   . . .   . . .   . .    ... ...   .   . . .   . . .   . .    ... ...

e-----------------------------------------------------------------------|
B-----------------------------------------------------------------------|
G-----------------------------------------------------------------------|
D-----------------------------------------------------------------------|
A---3-2-0--3-2-0--3-2-0--3-2-0------------3-2-0--3-2-0--3-2-0---0-0-----|
E---3-2-0--3-2-0--3-2-0--3-2-0--666-666---3-2-0--3-2-0--3-2-0---0-0-----|
    . . .  . . .  . . .  . . .  ... ...   . . .  . . .  . . .   . .

Solo (02:17)

e----------------------------------------------------------------------------------|
B----------------------------------------------------------------------------------|
G----------------------------------------------------------------------------------|
D---88---5~--555--7/8--7/8--7-8-10~--8-7-8-7p8p7---7-8--5~--------------8~--10~----|
A------8-----------------------------------------8-----------5/6--3/5--------------|
E----------------------------------------------------------------------------------|

e----------------------------------------------------------------------------------|
B----------------------------------------------------------------------------------|
G---14~--15~--16~--15-14-15-14p15p14----14-15--12~---------------------------------|
D------------------------------------15-------------------------8~--10~-------5~~~-|
A----------------------------------------------------5/6--3/5----------------------|
E----------------------------------------------------------------------------------|

Im sorry for not putting very much for not putting so much effort in it, its 4'o clock 
the morning what do u expect! the solo is not fully complete because there is pieces i'v 
hear so well but yeah thats the base of it, IMPROVISE!!!!

then riff A, a few times
Добавлено: 04.05.2012
Другие материалы по этой песне:

Страница создана 01.05.2012
http://primanota.ru/crematory/fallen-chords.htm
Привет, Гость.
Предлагаем пройти революционный курс по гитаре.
Подарок от PrimaNota.Ru, забирай!