PrimaNota.ru - самый крупный в мире бесплатный архив песенных текстов, аккордов, табулатур и нот


Crematory - Eyes Of Suffering - текст песни, таба, видео

Регистрация Запомнить меня
Войти через:  Facebook Google Twitter Vk Yandex Mail.ru

Crematory - Eyes Of Suffering - текст песни, таба, видео

Печатать
Просмотров: 295
Transcribed by: Radchenko Konstantin
e-mail: kostarv@yahoo.com
Band: CREMATORY
Song: Eyes of Suffering
Album: Transmigration

Tuning Eb

Intro
Riff A
Both guitars                                        x4
||--------------------------------------------------||
||*------------------------------------------------*||
||------7—(7)\6--6—(6)\4--4-(4)\2--2-----/\---------||
||------7-(7)\6--6-(6)\4--4-(4)\2--2-----/\---------||
||*-----5—(5)\4--4-(4)\2--2-(2)\0--0-----/\--------*||
||--------------------------------------------------||


Verse
Riff B                                                                            x4
||--------------------------------------------------------------------------------|------||
||*------------------------------------------------------------------------------*|------||
||--------------------------------------------------------------------------------|------||
||----7----------------6----------------4------------------2----------------------|---2--||
||*---5-55555555555555-4-44444444444444-2-2222222222222222-0-000000000000000-----*|---0--||
||--------------------------------------------------------------------------------|------||
p.m.  ......................................................................


Chorus
Riff C
Gtr 1              __ The eyes of suffering ___        (suffering)       x2
||------------------------------------------------------------------------|
||*----------------------------------------------------------------------*|
||-------6-(6)---------------------------4-(4)----------------------------|
||-------6-(6)---------------------------4-(4)----------------------------|
||*----444-(4)-------------------------222-(2)---------------------------*|
||------------------------------------------------------------------------|
|p.m.  ..                              ..                                 |
|                                                                         |
Gtr 2                                                                     |
||------------------------------------------------------------------------|
||*----------------------------------------------------------------------*|
||------------------------------------------------------------------------|
||-----------4---4-------4---4-------5-------4---4-------4---4-------5----|
||*------2-2---2---2-2-2---2---2-2-2-----3-3---3---3-3-3---3---3-3-3-----*|
||------------------------------------------------------------------------|
p.m.     . .   .   . . .   .   . . .     . .   .   . . .   .   . . .



Gtr 1                       __ The eyes of suffering ___        (suffering)     x2
|--------------------------------------------------------------------------------|
|*------------------------------------------------------------------------------*|
|--------------------------------------------------------------------------------|
|--------6-----------------6----------------4-----------------4-------4----------|
|*-----444-4-4-4-4-4-4---444-4-4-4-4-4-4--222-2-2-2-2-2-2---222-2-2-222-2-2-----*|
|--------------------------------------------------------------------------------|
|p.m.  ..  . . . . . .   ..  . . . . . .  ..  . . . . . .   ..  . . ..  . .      |
|                                                                                |
Gtr 2                                                                            |
|--------------------------------------------------------------------------------|
|*------------------------------------------------------------------------------*|
|--------------------------------------------------------------------------------|
|-----------4---4-------4---4-------5---------4---4-------4---4-------5----------|
|*------2-2---2---2-2-2---2---2-2-2-------3-3---3---3-3-3---3---3-3-3-----------*|
|--------------------------------------------------------------------------------|
p.m.    . .   .   . . .   .   . . .       . .   .   . . .   .   . . .



Both guitars                x3               x4            x4              x4
|------------|----------------|---------------|--------------|--------------|---------------||
|------------|*--------------*|*-------------*|*------------*|*------------*|---------------||
|------------|----------------|---------------|--------------|--------------|---------------||
|---------6--|----------6-----|-----------4---|-----------6--|----------4---|----4-(4)~~~---||
|----4444-4--|*--444444-4----*|*---222222-2--*|*---444444-4-*|*--222222-2--*|---------------||
|------------|----------------|---------------|--------------|--------------|---------------||
p.m. ....        ......            ......          ......        ......


Verse 2
Riff D                                                                             x2
||----------------------------------------------------------------------------------|
||*--------------------------------------------------------------------------------*|
||----------------------------------------------------------------------------------|
||-------------7----------------7------------------6-----------------6--------------|
||*----5-5-5-5-5-5-5-5-5-5-5-5--5-5-5-5----4-4-4-4-4--4-4-4-4-4-4-4--4-444444------*|
||----------------------------------------------------------------------------------|
p.m.   . . . .   . . . . . . .    . . .     . . . .   . . . . . . .    ......



Both guitars                                                                      x2
|----------------------------------------------------------------------------------||
|*--------------------------------------------------------------------------------*||
|----------------------------------------------------------------------------------||
|-------------7----------------7------------------8------8----8--------------------||
|*----5-5-5-5-5-5-5-5-5-5-5-5--5-5-5-5----6-6-6-6-6-6-6----6----6-6-6-6-6666------*||
|----------------------------------------------------------------------------------||
p.m.  . . . .   . . . . . . .    . . .    . . . .  . .     .    . . . . ....


Repeat Riff D two times, then
Chorus, Riff C

The ending
||---------------||
||---------------||
||---------------||
||----6----------||
||----4----------||
||---------------||

Any corrections are accepted....
Добавлено: 15.05.2012
Другие материалы по этой песне:
  • Аккорды и текст

Страница создана 15.05.2012
http://primanota.ru/crematory/eyes-of-suffering-chords.htm
Привет, Гость.
Предлагаем пройти революционный курс по гитаре.
Подарок от PrimaNota.Ru, забирай!