PrimaNota.ru - самый крупный в мире бесплатный архив песенных текстов, аккордов, табулатур и нот


Creedence Clearwater Revival - Effigy Full Song - таба, видео

Регистрация Запомнить меня
Войти через:  Facebook Google Twitter Vk Yandex Mail.ru

Creedence Clearwater Revival - Effigy Full Song - таба, видео

Печатать
Просмотров: 117
Уроки эстрадного вокала в Санкт-Петербурге
-------------------------------------------------------------------------------
                 Creedence Clearwater Revival - Effigy (Full Song)
-------------------------------------------------------------------------------
Tabbed by: Carveila141
E-mail: carveila141@gmail.com

Tuning:Standard?

This is my first tab and i just did it by ear please notify me of any corrections

INTRO:
e|---------3---5--3----5---3--5---
B|-6-3-5-3---3---3---3---3--3---3-
G|-------------------------------- x3
D|--------------------------------
A|--------------------------------
?|--------------------------------

e|3---5---2---4---2---4---4---2~--2--2--3~
B|--3---3---2---2---2---2---2-----3--3--3~
G|--------------------------------2--2--4~
D|--------------------------------0--0--5~
A|----------------------------------------
?|----------------------------------------

VERSE:
     C      D Ds4 D   G     C     G      E       E 7       E       E 7
e|----------2-3-3-2-3-3-3-------3-3-3-0-0-0-0--0-0-0-0--0-0-0-0--0-0-0-0-
B|-1-1-1-1--3-3-3-3-0-0-0-1-1-1-0-0-0-0-0-0-0--0-0-0-0--0-0-0-0--0-0-0-0-
G|-0-0-0-0--2-2-2-2-0-0-0-0-0-0-0-0-0-1-1-1-1--1-1-1-1--1-1-1-1--1-1-1-1-
D|-2-2-2-2--0-0-0-0-0-0-0-2-2-2-0-0-0-2-2-2-2--0-0-0-0--2-2-2-2--0-0-0-0-
A|-3-3-3-3----------2-2-2-3-3-3-2-2-2-2-2-2-2--2-2-2-2--2-2-2-2--2-2-2-2-
?|------------------3-3-3-------------0-0-0-0--0-0-0-0--0-0-0-0--0-0-0-0-

Chorus:
     C      D Ds4 D   G     C    Am7      E       E 7       E       E 7
e|----------2-3-3-2-3-3-3-------0-0-0-0-0-0-0--0-0-0-0--0-0-0-0--0-0-0-0-
B|-1-1-1-1--3-3-3-3-0-0-0-1-1-1-1-1-1-0-0-0-0--0-0-0-0--0-0-0-0--0-0-0-0-
G|-0-0-0-0--2-2-2-2-0-0-0-0-0-0-0-0-0-1-1-1-1--1-1-1-1--1-1-1-1--1-1-1-1-
D|-2-2-2-2--0-0-0-0-0-0-0-2-2-2-2-2-2-2-2-2-2--0-0-0-0--2-2-2-2--0-0-0-0-
A|-3-3-3-3----------2-2-2-3-3-3-0-0-0-2-2-2-2--2-2-2-2--2-2-2-2--2-2-2-2-
?|------------------3-3-3-------------0-0-0-0--0-0-0-0--0-0-0-0--0-0-0-0-

1st Solo
e|---------------------------------0~--------------0~---------------------
B|------------------------------5b-5b--------------5b-5-5-5---------------
G|9v~-9/7-5-7/4-4--5-4-5-4-5-5-4---4b-4-3-4-4b-2-3-4b-4-4-4-3-2-3-0-0-(4)-
D|------------------------------------------------------------------------
A|------------------------------------------------------------------------
?|------------------------------------------------------------------------

e|------------------------------------0~----0~----0~----0~----
B|---------------------------------5b-5b-5b-5b-5b-5b-5b-5b-(5)
G|9v~-9/7-5-7/4-4-5p4-5p4-5p4-5p4-4---4b----4b----4b----4b----
D|------------------------------------------------------------
A|------------------------------------------------------------
?|------------------------------------------------------------

e|----------------------0---0~-0~-0~-0~-0~-0~-0~-----
B|-----------------5---5-5b-5b-5b-5b-5b-5b-5b-5b-(5)-
G|9v~-9/7-5-7/4-4-4-4-4-----4b----4b----4b----4b-----
D|--------------------------0~----0~----0~----0~-----
A|---------------------------------------------------
?|---------------------------------------------------

e|----------------------0---0~-0~--0~-------------------0-0-0~-
B|-----------------5---5-5b-5b-5---5b-------------------5-5-5b-
G|9v~-9/7-5-7/4-4-4-4-4-----4b-4---4b-3-4-2-4-4-3-4-0--4----4b-
D|--------------------------0~---0-------------------0-0-------
A|-------------------------------------------------------------
?|-------------------------------------------------------------

2nd Solo
e|-----------------------------------------------------)--)--)--)--)--)----
B|---------------------------------------------------16-16-16-16-16-16-16b-
G|9v~-9/7-5-7/4-4--5-4-5-4-5-4-5-4/9-9-11-11-13-13-16----------------------
D|-------------------------------------------------------------------------
A|-------------------------------------------------------------------------
?|-------------------------------------------------------------------------

e|-----------------------0---0~-0-0-0-0-0-0~-----
B|------------------5---5-5b-5b-5-5-5-5-5-5b-(5)-
G|9v~-9/7-5-7/4-4--4-4-4-----4b-4-4-4-4-4-4b-----
D|---------------------------0~------------------
A|-----------------------------------------------
?|-----------------------------------------------

e|-----------------------0---0~-0~-0~-0~-0~-0~-----0-0~-
B|------------------5---5-5b-5b-5b-5b-5b-5b-5b-5-5-5-5b-
G|9v~-9/7-5-7/4-4--4-4-4-----4b----4b----4b----4-4------
D|---------------------------0~----0~----0~-------------
A|------------------------------------------------------
?|------------------------------------------------------

This part is messy but it sounds okay
e|-----7-----10---10-----12---7-----10----------0-----0~----0~-0----7-7-7-7-7b
B|-------7/9---------7/9--------7h9------11----5-5----5b-5b-5b-5-5b---5-5-5-5b
G|-7/9----------9-----------9----------9----9-4----4b-4b-4b----4------4-4-4-4b
D|----------------------------------------------------------------------------
A|----------------------------------------------------------------------------
?|----------------------------------------------------------------------------

e|---7--10---10--7-----12---7-----10--7---0--0~----0~---------------------0~-
B|---------7-------7h9--------7-9--------5-5-5b-5b-5b-5-7-8-9-12-12-12-12-12b
G|-9---9-------9----------9---------9---4----4b-4b-4b-4-6-7-8-11-11-11-11-11b
D|-------------------------------------------0~------------------------------
A|---------------------------------------------------------------------------
?|---------------------------------------------------------------------------

e|-----------0-0~---------------------------------------------------------
B|-13b-11-9--5-5b-7-8-9-11-12-12-12-12-13-14-12-15-5-7-8-9-11-12-12-12-12-
G|-12b-10-10-4-4b-6-7-8-10-11-11-11-11-12-13-11-14-4-6-7-8-10-11-11-11-11-
D|-----0~----0----0-0-0-0--0--0--0--0--0~-0~-0~-0~-0-0-0-0-0--0--0--0--0--
A|------------------------------------------------------------------------
?|------------------------------------------------------------------------

e|-------------0----------------0-0-0-0-0-0-0~-
B|-----5---------5--5-----6---7-5-5-5-5-5-5-5b-
G|---4---4---4--------4---------4-4-4-4-4-4-4b-
D|-0-------0-------0----0---0------------------
A|---------------------------------------------
?|-----------------------------0~--------------


************************************
|(5)  Ghost note
| /   slide 
| h   hammer-on
| p   pull-off
| ~   let ring
| v   vibrato
| +   harmonic
| x   Mute note
| b   Bend
************************************
Добавлено: 07.07.2015
Другие материалы по этой песне:
  • Аккорды и текст

Страница создана 07.07.2015
http://primanota.ru/creedence-clearwater-revival/effigy-full-song-chords.htm
Привет, Гость.
Предлагаем пройти революционный курс по гитаре.
Подарок от PrimaNota.Ru, забирай!