PrimaNota.ru - самый крупный в мире бесплатный архив песенных текстов, аккордов, табулатур и нот


Creedence Clearwater Revival - Who ll stop the rain 2 - бас-таба, видео

Регистрация Запомнить меня
Войти через:  Facebook Google Twitter Vk Yandex Mail.ru

Creedence Clearwater Revival - Who ll stop the rain 2 - бас-таба, видео

Печатать
Просмотров: 313


Who'll Stop The Rain
Creedence Clearwater Rewival
TablEdited by Jan Bjorklund
Tuning : E A D G 	Time Signature: 4/4

 tempo 122       |       |        |       |       |       |        
|--------------------------------|--------------------------------|
|5-----------5-------------------|5---------------5-------4-------|
|----------------5-------5-------|------------5-------------------|
|--------------------------------|--------------------------------|

 |       |       |       |        |       |       |       |        
|--------------------------------|--------------------------------|
|2-----------2-------------------|2-------------------------------|
|----------------2-------2-------|----------------2---------------|
|--------------------------------|------------------------2-------|

 |       |       |       |        |       |       |       |        
|--------------------------------|--------------------------------|
|--------------------------------|------------------------5-------|
|--------------------------------|--------------------5-------5---|
|3-----------3---3---------------|3-------------------------------|

 |       |       |       |        |       |       |       |        
|--------------------------------|--------------------------------|
|--------------------------------|--------------------------------|
|----------------5---------------|----------------5---------------|
|3-----------3-------------------|3-----------3-----------3-------|

 |       |       |       |        |       |       |       |        
|--------------------------------|--------------------------------|
|--------------------------------|--------------------------------|
|3-----------3---3---------------|--------------------------------|
|--------------------------------|3-----------3---3---------------|

 |       |       |       |        |       |       |       |        
|--------------------------------|--------------------------------|
|--------------------------------|--------------------------------|
|----------------5---------------|----------------5---------------|
|3-----------3-------------------|3-----------3-----------3-------|

 |       |       |       |        |       |       |       |        
|--------------------------------|--------------------------------|
|------------------------5-------|--------------------------------|
|3-----------3---3---------------|--------------------------------|
|--------------------------------|3-----------3---3-------3-------|

 |       |       |       |        |       |       |       |        
|--------------------------------|--------------------------------|
|------------------------5-------|--------------------------------|
|3-----------3---3---------------|--------------------5-------5---|
|--------------------------------|3-----------3---3-------3-------|

 |       |       |       |        |       |       |       |        
|--------------------------------|--------------------------------|
|------------------------5-------|--------------------------------|
|3-----------3---3---------------|--------------------------------|
|--------------------------------|3-----------3---3-------3-------|

 |       |       |       |        |       |       |       |        
|--------------------------------|--------------------------------|
|------------------------5-------|------------------------7-------|
|3-----------3---3---3-------3---|5---------------5---5-------5---|
|--------------------------------|------------5-------------------|

 |       |       |       |        |       |       |       |        
|--------------------------------|--------------------------------|
|--------------------------------|----------------5-------5-------|
|7---------------7---7---7-------|------------5-------------------|
|------------7---------------7---|3-------------------------------|

 |       |       |       |        |       |       |       |        
|--------------------------------|--------------------------------|
|----------------5-------5-------|----------------5---------------|
|------------5-------5-------5---|------------5-------------------|
|3-------------------------------|3-----------------------3-------|

 |       |       |       |        |       |       |       |        
|--------------------------------|--------------------------------|
|--------------------------------|----------------5---------------|
|----------------5---------------|3-----------3-----------3-------|
|3-----------3-----------3-------|--------------------------------|

 |       |       |       |        |       |       |       |        
|--------------------------------|--------------------------------|
|----------------5-------5-------|--------------------------------|
|--------------------5-------5---|----------------2-------0---1---|
|3-----------3-------------------|3-----------3-------3-----------|

 |       |       |       |        |       |       |       |        
|--------------------------------|--------------------------------|
|--------------------------------|--------------------------------|
|2-----------2---2---2---2-------|3-----------3---3-------3---5---|
|--------------------------------|--------------------------------|

 |       |       |       |        |       |       |       |        
|--------------------------------|--------------------------------|
|--------------------------------|--------------------------------|
|------------------------0---2---|3-----------3---3---3---3-------|
|3-----------3---3---3-----------|----------------------------3---|

 |       |       |       |        |       |       |       |        
|--------------------------------|--------------------------------|
|------------------------5-------|--------------------------------|
|--------------------5-------5---|3-----------3---3---2---3---5---|
|3-----------3---3---------------|--------------------------------|

 |       |       |       |        |       |       |       |        
|--------------------------------|------------------------5-------|
|--------------------------------|----------------------------5---|
|------------------------5-------|3-----------3---3---3-----------|
|3-------3---3---3---3-------3---|--------------------------------|

 |       |       |       |        |       |       |       |        
|--------------------------------|--------------------------------|
|--------------------------------|--------------------------------|
|5---------------5---5---5-------|7---------------7---7---7---0---|
|------------5---------------5---|------------7-------------------|

 |       |       |       |        |       |       |       |        
|--------------------------------|--------------------------------|
|--------------------------------|----------------5-------5-------|
|----------------5---5---5-------|--------------------5-------5---|
|3-----------3-------------------|3-----------3-------------------|

 |       |       |       |        |       |       |       |        
|--------------------------------|--------------------------------|
|--------------------------------|------ and so on....------------|
|3-----------------------5-------|--------------------------------|
|------------3---3---------------|--------------------------------|

 

Created with TablEdit http://www.tabledit.com/


Добавлено: 12.12.2013
Другие материалы по этой песне:
  • Аккорды и текст

Страница создана 12.12.2013
http://primanota.ru/creedence-clearwater-revival/who-ll-stop-the-rain-2-chords.htm
Привет, Гость.
Предлагаем пройти революционный курс по гитаре.
Подарок от PrimaNota.Ru, забирай!