PrimaNota.ru - самый крупный в мире бесплатный архив песенных текстов, аккордов, табулатур и нот


Creed - Pity For A Dime - аккорды и текст, таба, бас-таба, видео

Регистрация Запомнить меня
Войти через:  Facebook Google Twitter Vk Yandex Mail.ru

Creed - Pity For A Dime - аккорды и текст, таба, бас-таба, видео

Печатать
Просмотров: 242
Pity For A Dime
Creed
Author/Artist: Creed
Title: Pity For a Dime (Solo)
Album: My Own Prison
Transcribed by: Andrew Shantz
Email: ashantz@sympatico.ca

Hey everybody.  I haven't found a solid version of this awesome solo yet so I 
decided to tab it out myself.  Feel free to e-mail me with questions, comments
or corrections.  I've gotten several replys from my other tabs concerning the 
program I was using to slow down the song.  It's called Transcribe and you can
find it at http://www.harmony-central.com/Software/Windows/guitar.html
Good luck and enjoy.

--------------------------------------12^-------------------------15----14---
--------------------------------------ph------------------------------15------
-----------------------------11-12--------------------------------------------
--------------------------14-------14-----------------------------------------
-12b-12b12p10----10------------------------------10-12b12p10----10------------
--------------12---------------------------10-12-------------12---------------
                                                                              

------------------------------------------------------------------------------
-14-15------------------------------------12-13-12-12-15--15----------------
-----14b-----------------------------------------------14b-14b-14b14p12------
-----------------------------------9-10-9-9------------------------------14---
------------------------------------------------------------------------------
---------------------------7-8-7-7--------------------------------------------
                                                                              

------------------------------------------------------------------------------
----------------------------------------10h12-12-12h13p12-10-12-10------------
-12-12-------------------------12----------------------------------12---------
-------14-------12----------------14------------------------------------------
----------12-14----14-14-12-14------------------------------------------------
------------------------------------------------------------------------------
                                                                              

------------------------------------------------------------------------------
------------------------------------------------------------------------------
-11h12p11-9-11-9-------------------------12-----------------------------------
-----------------10-9-------------12-14----14-12-----------------------------
-----------------------------12-14----------------14-12-------------------12--
-----------------------12-14----------------------------15-14-12-12-12-14-----
                        x x x x x x x x x x x x x x x x x x x x x x x x x x   
			palm mute

------------------------------------------------------------------------------
------------------------------------------------------------------------------
----------12-------------------------------------------11-8-9----8------------
----12-14----14-12-------------------------------12-14--------10---9-10-9b9b9-
-14----------------14-12-------------------12-14------------------------------
-------------------------15-14-12-12-12-14------------------------------------
 x x x x x x x x x x x x x x x x x x x x x x x x x x x                        

-12-12-14p12-14-15-14-12-17p12-14-15-14-12-14p12-14-15-14-12-17p12-14-15-14---
------------------------------------------------------------------------------
------------------------------------------------------------------------------
------------------------------------------------------------------------------
------------------------------------------------------------------------------
------------------------------------------------------------------------------
                                                                              

-12-15-12-12-12-15-12-14-15-17-14-15-17-14-15-18-17b--------------------------
------------------------------------------------------------------------------
------------------------------------------------------------------------------
------------------------------------------------------------------------------
------------------------------------------------------------------------------
------------------------------------------------------------------------------
Добавлено: 17.03.2012
Другие материалы по этой песне:

Страница создана 25.02.2012
http://primanota.ru/creed/pity-for-a-dime-chords.htm
Привет, Гость.
Предлагаем пройти революционный курс по гитаре.
Подарок от PrimaNota.Ru, забирай!