PrimaNota.ru - самый крупный в мире бесплатный архив песенных текстов, аккордов, табулатур и нот


Creed - Say I - аккорды и текст, таба, бас-таба, видео

Регистрация Запомнить меня
Войти через:  Facebook Google Twitter Vk Yandex Mail.ru

Creed - Say I - аккорды и текст, таба, бас-таба, видео

Печатать
Просмотров: 262
Авторы: Scott Stapp, Mark Tremonti

Say I
Creed
		   Author/Artist: Creed
Title: Say I
Album: Human Clay
Transcribed by: Adam Strachn
Email: CookieMonster912@hotmail.com

Drop D tuning

Intro – the bends are full bends; Play the first part 2 x -
------------------------------------------|----------------------------------|
------------------------------------------|----------------------------------|
-5--5-------5-------3-------3----------3--|-----------7-------5--7--7brb--5--|
-3--3---0---5---0---1---0---3---0--0---3--|--0-0-0-0--7--0-0--5--7--7brb--5--|
-3--3---0---3---0---1---0---1---0--0---1--|--0-0-0-0-----0-0-----------------|
-3--3---0-------0---1---0-------0--0------|--0-0-0-0-----0-0-----------------|

Then this -
---------------------------------------|------------------------------------0--|
---------------------------------------|-----------------10-12b-10----10-10-0--|
-5--5--5------5------3--3--3--3--3--3--|-----------10-12-10-12b-10-12-10-10----|
-3--3--3---0--5--0---1--1--3--1--1--3--|--0-0-0-0--10-12-----------12----------|
-3--3--3---0--3--0---1--1--1--1--1--1--|--0-0-0-0------------------------------|
-3--3--3---0-----0---1--1-----1--1-----|--0-0-0-0------------------------------|

---------------------------------------|-------|
---------------------------------------|-------|
-5--5--5------5------3--3--3--3--3--3--|-------|
-3--3--3---0--5--0---1--1--3--1--1--3--|--0~~--|
-3--3--3---0--3--0---1--1--1--1--1--1--|--0~~--|
-3--3--3---0-----0---1--1-----1--1-----|--0~~--|

Verse -
-----5-----------------------------|------------------------------|
---------3-------------3-----------|--------------8------------7--|
-----------------2/3-------3p0--2--|----------8------------7------|
-------------0---------------------|------0------------0----------|
-----------------------------------|------------------------------|
-0~--------------------------------|--0~--------------------------|

Pre Chorus – “Who is to blame? . . .”
---------------------------------------|
-------10-----10-----10-----10-----10--|
----8------8------8------8------8------|
-0-------------------------------------|
---------------------------------------|
---------------------------------------|

---------------------------------------|
-------10-----10-----10-----10-----10--|
----7------7------7------7------7------|
-0-------------------------------------|
---------------------------------------|
---------------------------------------|

Repeat above 1 more time

Then this – “Say I~~~ . . .”
---------------------------------------|
-------10-----10-----11-----10-----11--|
----8------8------8------8------8------|
-0-------------------------------------|
---------------------------------------|
---------------------------------------|

---------------------------------------|
-------10-----10-----11-----10-----11--|
----7------7------7------7------7------|
-0-------------------------------------|
---------------------------------------|
---------------------------------------|

“Say I~~~~~~~~~~~~~~~~~~~~~~~~~~~~~ . . .”
-------------------------------------------------------------------------------|
-------10-----10--10-11--11-10-10-10---10------11--11----10----11-11-10-10-11--|
----8------8-------8--8---8--8--7--7----7-------7---7-----7-----7--7--7--7--7--|
-0-----------------0--0---0--0--0--0-0--0--0-0--0---0--0--0--0--0--0--0--0--0--|
--------------------------------0--0-0--0--0-0--0---0--0--0--0--0--0--0--0--0--|
-------------------------------------0--0--0-0--0---0--0--0--0--0--0--0--0--0--|

Chorus – full bends; play the first part 2x -
------------------------------------------|----------------------------------|
------------------------------------------|----------------------------------|
-5--5-------5-------3-------3----------3--|-----------7-------5--7--7brb--5--|
-3--3---0---5---0---1---0---3---0--0---3--|--0-0-0-0--7--0-0--5--7--7brb--5--|
-3--3---0---3---0---1---0---1---0--0---1--|--0-0-0-0-----0-0-----------------|
-3--3---0-------0---1---0-------0--0------|--0-0-0-0-----0-0-----------------|

Then this -
---------------------------------------|------------------------------------0--|
---------------------------------------|-----------------10-12b-10----10-10-0--|
-5--5--5------5------3--3--3--3--3--3--|-----------10-12-10-12b-10-12-10-10----|
-3--3--3---0--5--0---1--1--3--1--1--3--|--0-0-0-0--10-12-----------12----------|
-3--3--3---0--3--0---1--1--1--1--1--1--|--0-0-0-0------------------------------|
-3--3--3---0-----0---1--1-----1--1-----|--0-0-0-0------------------------------|

---------------------------------------|-------|
---------------------------------------|-------|
-5--5--5------5------3--3--3--3--3--3--|-------|
-3--3--3---0--5--0---1--1--3--1--1--3--|--0~~--|
-3--3--3---0--3--0---1--1--1--1--1--1--|--0~~--|
-3--3--3---0-----0---1--1-----1--1-----|--0~~--|

Bridge – (palm muted)
-----------------|-----------------------|---------------------------|--------
-----------------|---------------3b------|---------------3b-------4--|--------
-----------------|---------------2b------|---------------2b-------3--|--------
-0---0---0----0--|--0---0---0----0----0--|--0---0---0----0----0---1--|--------
-0---0---0----0--|--0---0---0----0----0--|--0---0---0----0----0---1--|--------
-0---0---0----0--|--0---0---0----0----0--|--0---0---0----0----0---1--|--------

Solo part – (palm muted)
Guitar 1 -
-----------------|-----------------------|---------------------------|--------
-----------------|---------------3b------|---------------3b-------4--|--------
-----------------|---------------2b------|---------------2b-------3--|--------
-0---0---0----0--|--0---0---0----0----0--|--0---0---0----0----0---1--|--------
-0---0---0----0--|--0---0---0----0----0--|--0---0---0----0----0---1--|--------
-0---0---0----0--|--0---0---0----0----0--|--0---0---0----0----0---1--|--------

Guitar 2 – (lots of delay)
-----------------|-----------------------|---------------------------|--------
-10--------------|-----------------------|--11----------10-----------|--------
-----------------|-------------12-11-12--|-----12-11-12--------------|--------
-----------------|-----------------------|---------------------------|--------
-----------------|-----------------------|---------------------------|--------
-----------------|-----------------------|---------------------------|--------

“Frantic fraction focus . . .”                                     |“G look . . .”
-----------------|-----------------------|-------------------------|-------------|
-----------------|---------------3b------|-------------------------|-------------|
-----------------|---------------2b------|-------------------------|-------------|
-0---0---0----0--|--0---0---0----0----0--|--0---0---0---0---0---0--|--1-1-1---0--|
-0---0---0----0--|--0---0---0----0----0--|--0---0---0---0---0---0--|--1-1-1---0--|
-0---0---0----0--|--0---0---0----0----0--|--0---0---0---0---0---0--|--1-1-1---0--|

“they lie~~~~~~”
----------------------------------|
----------------------------------|
-----------------------0----------|
-0----0----0----0------0-------0--|
-0----0----0----0------0-------0--|
-0----0----0----0------0-------0--|

Interlude – (play with fingers)
-5--5--5--5--5--5--5--5--5--|--5--5--5--5--5--5--5--|
-3--3--3--3--3--3--3--3--3--|-----------------------|
----------------------------|--0--2--3--0--3--0--2--|
-0--0--0--0--0--0--0--0--0--|-----------------------|
----------------------------|-----------------------|
----------------------------|-----------------------|

Calm Chorus part - (clean tone; strum chords)
----------------------|
-------------------3--|
-5--------3--------2--|
-3--------1--------0--|
-3--------1--------0--|
-3--------1--------0--|

Chorus – (distortion) 2x -
------------------------------------------5------------------------|
------------------------------------------3---3--3--3--3-----------|
-5-5--5\3--3----3--3--3---0--0---2--2-2---2---2--2--2--2----2---2--|
-3-3--0----1----1--1--1---0--0---0--0-0---0---0--0--0--0----0---0--|
-3-3--0----1----1--1--1---0--0---0--0-0---0---0--0--0--0----0---0--|
-3-3--0----1----1--1--1---0--0---0--0-0---0---0--0--0--0----0---0--|

Then this -
---------------------------------------|------------------------------------0--|
---------------------------------------|-----------------10-12b-10----10-10-0--|
-5--5--5------5------3--3--3--3--3--3--|-----------10-12-10-12b-10-12-10-10----|
-3--3--3---0--5--0---1--1--3--1--1--3--|--0-0-0-0--10-12-----------12----------|
-3--3--3---0--3--0---1--1--1--1--1--1--|--0-0-0-0------------------------------|
-3--3--3---0-----0---1--1-----1--1-----|--0-0-0-0------------------------------|

                                       “ I~~ . . .”
---------------------------------------|----------------|
---------------------------------------|----------------|
-5--5--5------5------3--3--3--3--3--3--|----------------|
-3--3--3---0--5--0---1--1--3--1--1--3--|--0--0--0--0~~--|
-3--3--3---0--3--0---1--1--1--1--1--1--|--0--0--0--0~~--|
-3--3--3---0-----0---1--1-----1--1-----|--0--0--0--0~~--|     
Добавлено: 04.09.2013
Другие материалы по этой песне:

Страница создана 27.02.2012
http://primanota.ru/creed/say-i-chords.htm
Привет, Гость.
Предлагаем пройти революционный курс по гитаре.
Подарок от PrimaNota.Ru, забирай!