PrimaNota.ru - самый крупный в мире бесплатный архив песенных текстов, аккордов, табулатур и нот


Creed - Illusion - аккорды и текст, таба, бас-таба, видео

Регистрация Запомнить меня
Войти через:  Facebook Google Twitter Vk Yandex Mail.ru

Creed - Illusion - аккорды и текст, таба, бас-таба, видео

Печатать
Просмотров: 240
Illusion
Creed
		   t. See http://www..net/faq/ for more information.                     #
#-----------------------------------------------------------------------------#


#-----------------------------------------------------------------------------#
#-- File created with Instab - http://www.pconline.com/~smcarey/instab.html --#
#-----------------------------------------------------------------------------#

Author/Artist: Creed
Title: Illusion
Album: My own Prison
Transcribed by: Matt
Email: matt110_@excite.com

There is already a version in the archive
done by Jeff A Hayes (fro99@juno.com). But the solo was left
out and it wasnt as accurate, so here is a accurate version with solo.

Key
b -  bend
br - bend and release
/ - slide up
\ - slide down
\ \ \ \  -  Dive with bar.


**********DROP D TUNING**********  (of course)

INTRO
------------------------------------------------------------------------------
-13b-13b-13b-13b-13b-13b------------------------------------------------------
-12b-12b-12b-12b-12b-12b--10-10-12--10-10-12p10--10-12-12-10------------------
-----------------------------------------------12------------12-10-10\--------
------------------------------------------------------------------------------
------------------------------------------------------------------------------


------------------------------------------------------------------------------
------------------------------------------------------------------------------
------------------------------------------------------------------------------
--4----3----3----0----4-------0-0--4----3----3---3-3-3-3-3--0--4--------------
--2----3----3----0-------5----0-0--2----3----3---3-3-3-3-3--0-----5----5-0----
-------3----3----0------------0-0-------3----3-0-3-3-3-3-3--0-----------------

VERSE
------------------------------------------------------------------------------
------------------------------------------------------------------------------
------------------------------------------------------------------------------
------------------------------------------------------------------------------
--2-2-2-2-2-2-----------------------------------------0--0--------------------
---------------3-3-3-3-3-3-3-3-3-3--0-0------0-0------0--0--------------------

------------------------------------------------------------------------------
------------------------------------------------------------------------------
------------------------------------------------------------------------------
------------------------------------------------------------------------------
--2-2-2-2-2-2-----------------------------------------0--0--------------------
---------------3-3-3-3-3-3-3-3-3-3--0-0------0-0------0--0--------------------


------------------------------------------------------------------------------
------------------------------------------------------------------------------
------------------------------------------------------------------------------
------------------------------------------------------------------------------
--2---------------------------------------------------0-0---------------------
--------------3--------------------0-0-------0-0------0-0---------------------


------------------------------------------------------------------------------
------------------------------------------------------------------------------
------------------------------------------------------------------------------
------------------------------------------------------------------------------
--2---------------------------------------------------------------------------
--------------3-------3br--3----0-0---0---0--4--0----0----0--4--0-0-0---------

CHORUS
------------------------------------------------------------------------------
------------------------------------------------------------------------------
------------------------------------------------------------------------------
--4---4-4-4--3-----3-3-----3-3-3---0---0-0-0---4-----4--------0--0--0---------
--2---2-2-2--3-----3-3-----3-3-3---0---0-0-0------------5-----0--0--0---------
-------------3-----3-3--0--3-3-3---0---0-0-0------------------0--0--0---------


------------------------------------------------------------------------------
------------------------------------------------------------------------------
------------------------------------------------------------------------------
--4----4-4-4--0----3---3-3-3--0-0-----0--0--0--0--4----4----------------------
--2----2-2-2--0----3---3-3-3--0-0-----0--0--0--0----------5------5p0----------
--------------0----3---3-3-3--0-0-----0--0--0--0------------------------------

**SOLO** (finally, the correct way to play the solo)
------------------------------------------------------------------------------
------------------------------------------------------------------------------
------------------------------------------------------------------------------
--------------------------------------------------5---------------------------
--5-----------3-3-3h5-3-3-3h5----------5-7-8--7-8----7-7-8--5-5-5-7-3---3/5---
------------------------------------------------------------------------------


------------------------------------------------------------------------------
------------------------------------------------------------------------------
--------------6-7-9-6-7---6---------------------------------------------------
--------5-7-8-----------8---7-8-5-7---5---------------------------------------
--5-7-8-----------------------------8---7-8-5-7-8-5-7-8-5-7-8-0\-\-\-\--------
--------------------------------------------------------------0\-\-\-\--------


------------------------------------------------------------------------------
------------------------------------------------------------------------------
------6--7---6-7-6----6-7-9-7-6---------6-7---6-7-6---6-7-9-7-6---------------
----7---------------------------8-7---7-------------------------8-7-----------
--5--------8--------7---------------5-------8-------7-------------------------
------------------------------------------------------------------------------


------------------------------------------------------------------------------
------------------------------------------------------------------------------
------6--7---6-7-6----6-7-9-7-6---------6-7---6-7-6---6-7-9-7-6-0-------------
----7---------------------------8-7---7-------------------------0-------------
--5--------8--------7---------------5-------8-------7-------------------------
------------------------------------------------------------------------------


--10-10-10-10-10-10-10-10-10-10-10-10-10-10-10-10-10-10-10-10-10-10-10-10-10--
--x--x--x--x--x--x--x--x--x--x--x--x--x--x--x--x--x--x--x--x--x--x--x--x--x---
--7--7--7--7--7--7--7--7--7--7--7--7--7--7--7--7--7--7--7--7--7--7--7--7--7---
------------------------------------------------------------------------------
------------------------------------------------------------------------------
------------------------------------------------------------------------------


--10-10-10-10-10-10-10-10-10-10-10-10-10-10-10-10-10-10-10-10-10-10-10-10-10--
--x--x--x--x--x--x--x--x--x--x--x--x--x--x--x--x--x--x--x--x--x--x--x--x--x---
--7--7--7--7--7--7--7--7--7--7--7--7--7--7--7--7--7--7--7--7--7--7--7--7--7---
------------------------------------------------------------------------------
------------------------------------------------------------------------------
------------------------------------------------------------------------------

BRIDGE
----------------------------------------------------------------------------
----------------------------------------------------------------------------
----------------------------------------------------------------------------
-12----12--0--0--8----8---8--8--0--0--0--10-----10--0--0--7----7--7--7-0--0-
-12----12--0--0--8----8---8--8--0--0--0--10-----10--0--0--7----7--7--7-0--0-
-12----12--0--0--8----8---8--8--0--0--0--10-----10--0--0--7----7--7--7-0--0-

Now go back to chorus     
Добавлено: 21.07.2013
Другие материалы по этой песне:

Страница создана 15.03.2012
http://primanota.ru/creed/illusion-chords.htm
Привет, Гость.
Предлагаем пройти революционный курс по гитаре.
Подарок от PrimaNota.Ru, забирай!