PrimaNota.ru - самый крупный в мире бесплатный архив песенных текстов, аккордов, табулатур и нот


Creed - Is This The End? - аккорды и текст, таба, бас-таба, видео

Регистрация Запомнить меня
Войти через:  Facebook Google Twitter Vk Yandex Mail.ru

Creed - Is This The End? - аккорды и текст, таба, бас-таба, видео

Печатать
Просмотров: 311
Is This The End?
Creed
DROP D TUNNING
DADGBE

i don't know if the chords are correct and how mark's play
but i'm sure it's sound good


INTRO/VERSE
e|------------------------------------------------|
b|----------------------------5h6--5p6-----3----1-|
g|--7/2/10--9p7--7-------5h7----------------------|
d|------------------------------------------------|
a|------------------------------------------------|
d|------------------------------------------------|

e|------------------------------------------|
b|--------------------4-----3---------------|
g|--5/10---7--5--3--5---5------2------------|
d|-------------------------------0----------|
a|------------------------------------------|
d|------------------------------------------|

e|----------------------------------------|
b|-6------5h6---3----1h3------------------|
g|----------------------------------------|
d|----------------------------------------|
a|----------------------------------------|
d|----------------------------------------|


PRE CHORUS/STRUM CHORDS
e|-0--------5-------------------------------|
b|-3--------3-------------------------------|
g|-2--------2-------------------------------|
d|-0--------0-------------------------------|
a|-0--------0-------------------------------|
d|-0--------0-------------------------------|

CHORUS/CLEAN
STRUM CHORDS
e|-5-----------------------------------------|
b|-3-----------------------------------------|
g|-2---------9---------7---------------------|
d|-0---------7---------5---------------------|
a|-0---------7---------5---------------------|
d|-0---------7---------5---------------------|

e|---------------------------------------------------------|
b|-3---3h5----5---5h7----7----7h9----9---9h11--------------|
g|-0---0-0----0---0-0----0----0-0----0---0--0--------14-14-|
d|-0---0-0----0---0-0----0----0-0----0---0--0--------------|
a|---------------------------------------------------------|
d|---------------------------------------------------------|

2nd VERSE
e|------------------------------------------------|
b|----------------------------5h6--5p6-----3----1-|
g|--7/2/10--9p7--7-------5h7----------------------|
d|------------------------------------------------|
a|------------------------------------------------|
d|------------------------------------------------|

e|------------------------------------------|
b|--------------------4-----3---------------|
g|--5/10---7--5--3--5---5------2------------|
d|-------------------------------0----------|
a|------------------------------------------|
d|------------------------------------------|

e|----------------------------------------|
b|-6------5h6---3----1h3------------------|
g|----------------------------------------|
d|----------------------------------------|
a|----------------------------------------|
d|----------------------------------------|

2nd PRE CHORUS
e|-0---5---5/7-7/9--9/12--12------------------------|
b|-3---3---3/5-5/7--7/-9---9------------------------|
g|-2---2---2/4-4/6--6/-8---8------------------------|
d|-0---0---0/0-0/0--0/-0---0------------------------|
a|-0---0---0/0-0/0--0/-0---0------------------------|
d|--------------------------------------------------|


W/DISTORTION
CHORUS/CLEAN
STRUM CHORDS
e|-5-----------------------------------------|
b|-3-----------------------------------------|
g|-2---------9---------7---------------------|
d|-0---------7---------5---------------------|
a|-0---------7---------5---------------------|
d|-0---------7---------5---------------------|


BRIDGE
Note: i don't know if the chords are correct just listen to the song
and get the rythm of it
STRUM CHORDS
e|------------------------------------------------------------|
b|------------------------------------------------------------|
g|------7---------4------5------------------------------------|
d|12----7---------4------5---0h333333333333-------------------|
a|12----5---------2------5---0h333333333333-------------------|
d|12-------------------------0h333333333333-------------------|


e|----------------------------------------|
b|----------------------------------------|
g|----------------------------------------|
d|5----------------------------------------|
a|5----------------------------------------|
d|5----------------------------------------|

strum chords
e|-5----------||
b|-3----------||
g|-2----------||
d|-0----------||
a|-0----------||
d|------------||

then jump to this part
e|-----------------------------------------------------------|
b|-----------------------------------------------------------|
g|-10--10---10-/--11--11/12--12--12--------------------------|
d|-x---x-----x-/--x---x/-x---x---x---------------------------|
a|-8---8-----8-/--9---9/-10--10--10--------------------------|
d|-----------------------------------------------------------|


e|----------------------------------------|
b|----------------------------------------|
g|-7--7-7-7-7-7-7-------------------------|
d|-5--5-5-5-5-5-5-------------------------|
a|-5--5-5-5-5-5-5-------------------------|
d|-5--5-5-5-5-5-5-------------------------|


e|---------------------------------------------------------|
b|-3---3h5----5---5h7----7----7h9----9---9h11--------------|
g|-0---0-0----0---0-0----0----0-0----0---0--0--------14-14-|
d|-0---0-0----0---0-0----0----0-0----0---0--0--------------|
a|---------------------------------------------------------|
d|---------------------------------------------------------|



CHORUS/CLEAN
STRUM CHORDS
e|-5-----------------------------------------|
b|-3-----------------------------------------|
g|-2---------9---------7---------------------|
d|-0---------7---------5---------------------|
a|-0---------7---------5---------------------|
d|-0---------7---------5---------------------|


then hit the distortion
e|---------------------------------------------------------|
b|-3---3h5----5---5h7----7----7h9----9---9h11--------------|
g|-0---0-0----0---0-0----0----0-0----0---0--0--------14-14-|
d|-0---0-0----0---0-0----0----0-0----0---0--0--------------|
a|---------------------------------------------------------|
d|---------------------------------------------------------|


-Lyrics-

Is The End

The rage in my eyes
Could have compared to the eye of a sun
Then rain
Took it's course through the hands of the Son
Repent for all time
The world is at war leaving all fault behind
So Is this the end for us my friend?
So Is this the end for us my friend?
The stains in the sky
Are there to remind us of man and his fight
When two worlds collide
One steals the life like a thief in the night
So look to the sky
He hold the keys for your life and mine
So Is this the end for us my friend?
So Is this the end for us my friend?
So Is this the end for us my friend?
Well as though we rise
As the day breaks the dawn
And as the moon hides the sun
Oh, the sun
No more sorrow
All those crying days are gone
No more sorrow, now it's gone
Now it's gone
Now it's gone
So Is this the end for us my friend?
So Is this the end for us my friend?
So Is this the end for us my friend?
So Is this the end for us my friend?

Written by Tremonti/Stapp

SO!! they're u go, i hope u like it
i would like to thank my pals,especially my favorite band CREED 
i'm the BIGGEST fan of creed
CHAR
if you have corrections just e-mail me
MAT_CYCLOPS15@yahoo.com

char!!!!!!!!!!!!!!
FROM:MATHEW RENN S. ALIBANGBANG
NORTH FAIRVIEW PHIL.QC MANILA
BYE!!!!!!!
Добавлено: 22.05.2012
Другие материалы по этой песне:

Страница создана 21.02.2012
http://primanota.ru/creed/is-this-the-end-chords.htm
Привет, Гость.
Предлагаем пройти революционный курс по гитаре.
Подарок от PrimaNota.Ru, забирай!