PrimaNota.ru - самый крупный в мире бесплатный архив песенных текстов, аккордов, табулатур и нот


Cramps - Way I Walk - таба, видео

Регистрация Запомнить меня
Войти через:  Facebook Google Twitter Vk Yandex Mail.ru

Cramps - Way I Walk - таба, видео

Печатать
Просмотров: 169
Уроки эстрадного вокала в Санкт-Петербурге
Авторы музыки: Jack Scott
Авторы текста: Jack Scott
                            The Way I Walk
                       As recorderd by The Cramps
                  (From the 1998 album: Off The Bone)



Transcribed by Corey Bock
Email: gutter_cat_vs_the_jets@hotmail.com





                            (Intro/Verse)



     A    E       A    E       E    A       A    B
     
e |--0-0--0-0-----0-0--0-0-----0-0--0-0-----0-0--2-2-------------------|
B |--2-2--0-0-----0-0--0-0-----0-0--2-2-----2-2--4-4-------------------|
G |--2-2--1-1-----2-2--1-1-----1-1--2-2-----2-2--4-4-------------------|
D |--2-2--2-2-----2-2--2-2-----2-2--2-2-----2-2--4-4-------------------|
A |--0-0--2-2-----2-2--2-2-----2-2--0-2-----0-0--2-2------2-2----------|
E |--0-0--0-0-----0-0--0-0-----0-0--0-0-----0-0--0-0----------5-5-3-0--|
                      
           

                  
                      Bridge (Blues Scale) <00:39>

e |----------------------------------------------------------------|
B |----------------------------------------------------------------|
G |----------------------------------------------------------------|
D |----------------------------------2-2-4-2-----------------------|
A |-----------2-2-4-2---(X4)---0-0-4-4--------(X2)--2-2-2----------|
E |---0-0-4-4---------------------------------------------5-5-5-3--|



 
                        SOLO <1:34>

e |----------------------------------------------------|
B |----------------------------------------------------|
G |-------------------9-9-7-7--------------------------|
D |-----------------------------9-9-7-7----------------|
A |--6/7-7---X8--------------------------10--6/7-------|
E |-----------------------------------------------7----|



e |------------------------------------------------------------|
B |------------------------------------------------------------|
G |------------------------------------------------------------|
D |----2--4-4/5-2-----2--4-4/5-2-------------------------------|
A |--2--------------2-------------2-2-2-2-2-2-2-2-2-2-2-2------|
E |--------------------------------------------------------5-3-|



VERSE
BRIDGE
VERSE 
SOLO
VERSE
BRIDGE





Notation: 
/    = slide up
\    = slide down
h    = hammer on 
p    = pull-off 
fb   = full bend 
fbr  = full bend and release 
hb   = half bend 
P.M. = palm mute 
~    = vibrato 
%    = repeat previous 
(X2) = repeat previous twice
Добавлено: 16.05.2012
Другие материалы по этой песне:
  • Аккорды и текст

Страница создана 21.03.2012
http://primanota.ru/cramps/way-i-walk-chords.htm
Привет, Гость.
Предлагаем пройти революционный курс по гитаре.
Подарок от PrimaNota.Ru, забирай!