PrimaNota.ru - самый крупный в мире бесплатный архив песенных текстов, аккордов, табулатур и нот


Cradle Of Filth - Unbridled At Dusk - текст песни, таба, видео

Регистрация Запомнить меня
Войти через:  Facebook Google Twitter Vk Yandex Mail.ru

Cradle Of Filth - Unbridled At Dusk - текст песни, таба, видео

Печатать
Просмотров: 163
Уроки эстрадного вокала в Санкт-Петербурге
I'll tab the rest of the demo when I am finished with the other songs I am tabbing (This 
Dank Oasis and
The Graveyard By Moonlight.) I am hoping to complete them all before next year, as I am 
getting out for winter break.


Song: Unbridled at Dusk
Album: Total Fucking Darkness
Artist: Cradle of Filth
Year: 1993

NOTES:
If you have any question or want to talk to me about anything then email me at xfunereal@yahoo.com
I think there is a guitar part between the first Verse and the Pre-chorus, but the drums 
Dani growling over-power
the sound of the guitar so I don't have that tabbed...
When I show what times the parts occur I am using the track from:

http://www.youtube.com/watch?v=JEtNeFHbTpw I use this one since it has the best quality.

LEGEND

. = Palm Mute
/ = Slide Up
\ = Slide Down
~ = Vibrato
h = hammer-on
p = pull-off
b = bend

Tuning: D Standard (low to high D G C F A D)

Intro, 0:08

[----------12----------------12--------------]
[-12-11-10----11-10-12-11-10----11-10--------]   <--- Repeat as necessary.
[--------------------------------------------]
[--------------------------------------------]
[--------------------------------------------]
[--------------------------------------------]


Verse, 0:28

[--------------------------------------------]
[--------------------------------------------]
[--------------------------------------------]
[------------4-----2------------5------------]
[--2-----4-5-2-----0--6-----4---3-----5-4----]
[--0-----2-3----------4-----2---------3-2----]
         . .                          . .
[--------------------------------------------]
[--------------------------------------------]
[--------------------------------------------]
[------------4-----2------------5------------]
[--2-----4-5-2-----0--6-----4---3-----5-4----]
[--0-----2-3----------4-----2---------3-2----]
         . .                          . .

[--------------------------------------------]
[--------------------------------------------]
[--------------------------------------------]
[--------------------------------------------]
[--2---------2-----0------------2-----5-4----]
[--0-----2-3----------4-----2---------3-2----]
                                      . .
[--------------------------------------------]
[--------------------------------------------]
[--------------------------------------------]
[--------------------------------------------]
[--2---------2-----0------------2-----5-4----]
[--0-----2-3----------4-----2---------3-2----]
                                      . .
[--------------------------------------------]
[--------------------------------------------]
[--------------------------------------------]      <--- 1:12
[--2------------------2----------------------]
[--2------------------2----------------------]
[--0------------------0----------------------]

End of Inaudible Riff, 1:09

[-------------------------------]
[-------------------------------]
[-------------------------------]
[-------------------------------]
[-------------------------------]
[--000-1--000-1--000-1--000-1---]
   ...    ...    ...    ...
Pre-Chorus(?), 1:14

[--------------------------------------------------]
[--------------------------------------------------]
[--------------------------------------------------]
[---6------7------4--------------6------7------4---]
[---4------5------2--------------4------5------2---]
[--------------------------------------------------]

[--------------------------------------------------]
[--------------------------------------------------]
[--------------------------------------------------]
[---6------7------4--------------6------7------4---]
[---4------5------2--------------4------5------2---]
[--------------------------------------------------]

Chorus(?), 1:28


[-------------------------------------------------------------]
[-------------------------------------------------------------]
[-------------------------------------------------------------]
[-------------------------------------------------------------]
[--2-222-2---3-5-3-333-3--3-3-3-2-222-----3-5-3-333-3--3-3-3--]
[--0-000-0-0-1-3-1-111-1--1-1-1-0-000---0-1-3-1-111-1--1-1-1--]
     ... . .       ... .          ...   .       ... .
[-------------------------------------------------------------]
[-------------------------------------------------------------]
[-------------------------------------------------------------]
[-------------------------------------------------------------]
[--2-222-2---3-5-3-333-3--3-3-3-2-222-----3-5-3-333-3--3-3-3--]
[--0-000-0-0-1-3-1-111-1--1-1-1-0-000---0-1-3-1-111-1--1-1-1--]
     ... . .       ... .          ...   .       ... .
[-------------------------------------------------------------]
[-------------------------------------------------------------]
[-------------------------------------------------------------]
[-------------------------------------------------------------]
[--2-222-2---3-5-3-333-3--3-3-3-2-222-----3-5-3-333-3--3-3-3--]
[--0-000-0-0-1-3-1-111-1--1-1-1-0-000---0-1-3-1-111-1--1-1-1--]
     ... . .       ... .          ...   .       ... .
[-------------------------------------------------------------]
[-------------------------------------------------------------]
[-------------------------------------------------------------]
[-------------------------------------------------------------]
[--2-222-2---3-5-3-333-3--3-3-3-2-222-----3-5-3-333-3--3-3-3--]
[--0-000-0-0-1-3-1-111-1--1-1-1-0-000---0-1-3-1-111-1--1-1-1--]
     ... . .       ... .          ...   .       ... .

Post Chorus(?), 1:51

[--------------------------------------------------]
[--------------------------------------------------]
[--9-----9h10p9-7-----9-10-9------9h10p9-12--------]
[--------------------------------------------------]
[--------------------------------------------------]
[--------------------------------------------------]

[--------------------------------------------------]
[--------------------------------------------------]
[--9-----9h10p9-7-----9-10-9------9h10p9-12--------]
[--------------------------------------------------]
[--------------------------------------------------]
[--------------------------------------------------]

[--------------------------------------------------]
[--------------------------------------------------]
[--9-----9h10p9-7-----9-10-9------9h10p9-12--------]
[--------------------------------------------------]
[--------------------------------------------------]
[--------------------------------------------------]

[--------------------------------------------------]
[--------------------------------------------------]
[--9-----9h10p9-7-----9-10-9------9h10p9-12--------]
[--------------------------------------------------]
[--------------------------------------------------]
[--------------------------------------------------]

Verse 2, 2:23

[-----------------------------------------------------------------------]
[-----------------------------------------------------------------------]
[-----------------------------------------------------------------------]
[---9-------------9\5-------------5/9-------------9\5-------------5/9---]
[---7-------------7\3-------------3/7-------------7\3-------------3/7---]
[-----------------------------------------------------------------------]

[----------------------------------]
[----------------------------------]
[----------------------------------]
[----------------------------------]
[-5-5-5-5-5-5-5-5-5-5-5-5-5-5-5-5--]
[-3-3-3-3-3-3-3-3-3-3-3-3-3-3-3-3--]
  . . . . . . . . . . . . . . . .
[----------------------------------]
[----------------------------------]
[----------------------------------]
[----------------------------------]
[-7-7-7-7-7-7-7-7-7-7-7-7-7-7-7-7--]
[-5-5-5-5-5-5-5-5-5-5-5-5-5-5-5-5--]
  . . . . . . . . . . . . . . . .
[-------------------------------------]
[-------------------------------------]
[---------------------------------7\--]
[---------------------------------5\--]
[-9-9-9-9-9-9-9-9-9-9-9-9-9-9-9-9-----]
[-7-7-7-7-7-7-7-7-7-7-7-7-7-7-7-7-----]
  . . . . . . . . . . . . . . . .

Keyboard Interlude, 3:41

[-----------------------------------------]
[-----------------------------------------]
[-----------------------------------------]
[--0-----0-2-3-----2-0-------0------------]
[----------------------3-------3-0--------]
[-----------------------------------------]

[-----------------------------------------]
[-----------------------------------------]
[-----------------------------------------]
[--0-----0-2-3-----2-0-------0------------]
[----------------------3-------3-0--------]
[-----------------------------------------]

[-----------------------------------------]
[-----------------------------------------]
[-----------------------------------------]
[--0-----0-2-3-----2-0-------0------------]
[----------------------3-------3-0--------]
[-----------------------------------------]

[-----------------------------------------]
[-----------------------------------------]
[-----------------------------------------]
[--0-----0-2-3-----2-0-------0------------]
[----------------------3-------3-0--------]
[-----------------------------------------]

Verse 3, 4:12

[--------------------------------------------]
[--------------------------------------------]
[--------------------------------------------]
[------------4-----2------------5------------]
[--2-----4-5-2-----0--6-----4---3-----5-4----]
[--0-----2-3----------4-----2---------3-2----]
         . .                          . .
[--------------------------------------------]
[--------------------------------------------]
[--------------------------------------------]
[------------4-----2------------5------------]
[--2-----4-5-2-----0--6-----4---3-----5-4----]
[--0-----2-3----------4-----2---------3-2----]
         . .                          . .

[--------------------------------------------]
[--------------------------------------------]
[--------------------------------------------]
[--------------------------------------------]
[--2---------2-----0------------2-----5-4----]
[--0-----2-3----------4-----2---------3-2----]
                                      . .
[--------------------------------------------]
[--------------------------------------------]
[--------------------------------------------]
[--------------------------------------------]
[--2---------2-----0------------2-----5-4-2--]
[--0-----2-3----------4-----2---------3-2-0--]
                                      . .
Pre-Solo, 4:58

[-----------------------------------------------------------------]
[-----------------------------------------------------------------]
[-----------------------------------------------------------------]
[-----------------------------------------------------------------]
[-7-7-777-7-7-777-7-7-777-7-7-777-3-3-3-3-3-3-3-3-3-3-3-3-3-3-3-3-]
[-5-5-555-5-5-555-5-5-555-5-5-555-1-1-1-1-1-1-1-1-1-1-1-1-1-1-1-1-]
  . .   . . .   . . .   . . .   . . . . . . . . . . . . . . . . .

[-------------------------------------------------------------------]
[-------------------------------------------------------------------]
[-------------------------------------------------------------------]
[-------------------------------------------------------------------]
[-------------------------------------------------------------------]
[-5-5-555-5-5-555-5-5-555-5-5-555-7-7-7-7-7-7-7-7-7-7-7-7-7-7-7-7---]
[-3-3-333-3-3-333-3-3-333-3-3-333-5-5-5-5-5-5-5-5-5-5-5-5-5-5-5-5---]
  . .   . . .   . . .   . . . ... . . . . . . . . . . . . . . . .

SOLO: I didn't tab the whole thing because I can't really make it out....    But I will 
my best and maybe I will be able to post the fast part in a separate tab.


5:53

[-------------------------------------------------]
[-------------------------------------------------]
[-------------------------------------------------]
[-------------------------------------------------]
[---7----7-8-10---8-7-7----7-8-7--7-8-7---7-7-----]
[-------------------------------------------------]

[---14b-14b-14b-14b-14b-14b-14b-14b-13--12---12-13-12--12-13-12---]
[-----------------------------------------------------------------]
[-----------------------------------------------------------------]
[-----------------------------------------------------------------]
[-----------------------------------------------------------------]
[-----------------------------------------------------------------]

[---------------------------------------------------------]
[---12\10/12--12-15-15--13--12-12--13-12------------------]
[----------------------------------------14-14---14-14\12-]
[---------------------------------------------------------]
[---------------------------------------------------------]
[---------------------------------------------------------]

[-------------------------------------------------]
[-------------------------------------------------]
[--12---------------------------------------------]
[------12-------12h14-14-------14\----------------]
[-------------------------------------------------]
[-------------------------------------------------]

Post Solo, 5:58

[--------------------------------------------------------]
[--------------------------------------------------------]
[--------------------------------------------------------]
[---------------3~2~------------3~2~------------3~2~-----]
[---7---------------3---------------5---------------7----]
[---5---------------1---------------3---------------5----]

Outro, 6:15

[-------------------------------------------------------------]
[-------------------------------------------------------------]
[-------------------------------------------------------------]
[-------------------------------------------------------------]
[--2-222-2---3-5-3-333-3--3-3-3-2-222-----3-5-3-333-3--3-3-3--]
[--0-000-0-0-1-3-1-111-1--1-1-1-0-000---0-1-3-1-111-1--1-1-1--]
     ... . .       ... .          ...   .       ... .
[-------------------------------------------------------------]
[-------------------------------------------------------------]
[-------------------------------------------------------------]
[-------------------------------------------------------------]
[--2-222-2---3-5-3-333-3--3-3-3-2-222-----3-5-3-333-3--3-3-3--]
[--0-000-0-0-1-3-1-111-1--1-1-1-0-000---0-1-3-1-111-1--1-1-1--]
     ... . .       ... .          ...   .       ... .

[--------------------------------------------------]
[--------------------------------------------------]
[--------------------------------------------------]
[---6------7------4--------------6------7------4---]
[---4------5------2--------------4------5------2---]
[--------------------------------------------------]

[----------------------------------------------------]
[----------------------------------------------------]
[----------------------------------------------------]
[---6------7------4--------------6------7------4-----]
[---4------5------2--------------4------5------2---2-]
[--------------------------------------------------0-]

Rewinding Effect.
Добавлено: 20.07.2012
Другие материалы по этой песне:
  • Аккорды и текст

Страница создана 06.05.2012
http://primanota.ru/cradle-of-filth/unbridled-at-dusk-chords.htm
Привет, Гость.
Предлагаем пройти революционный курс по гитаре.
Подарок от PrimaNota.Ru, забирай!