PrimaNota.ru - самый крупный в мире бесплатный архив песенных текстов, аккордов, табулатур и нот


Cradle Of Filth - Lovesick For Mina - текст песни, таба, бас-таба, видео

Регистрация Запомнить меня
Войти через:  Facebook Google Twitter Vk Yandex Mail.ru

Cradle Of Filth - Lovesick For Mina - текст песни, таба, бас-таба, видео

Печатать
Просмотров: 251
Уроки эстрадного вокала в Санкт-Петербурге
I made this becouse everyone else were so slow!

Guitar 1

|3-6-5653-5-3---3-6-------6-76---|
|-------------3-----7---7------7-|
|---------------------8----------|
|--------------------------------|
|--------------------------------|
|--------------------------------| x2


|3-------3-6/8-6-5-6-------6-11----|
|--3---3-------------7---7-----11--|
|----3-----------------8---------11|
|----------------------------------|
|----------------------------------|
|----------------------------------| x2

Guitar 2

|--------------------------------|
|--------------------------------|
|----3---3-----------3---3-------|
|--5---5---5---5---4---4---4---4-|
|5-----------5---6-----------6---|
|--------------------------------| x2


|--------------------------------|
|----------------------4-64------|
|3-0-----------0---0-3-----3-0---|
|----0-------0---1-------------1-|
|------1---1---------------------|
|--------3-----------------------| x2
Добавлено: 18.03.2012
Другие материалы по этой песне:

Страница создана 25.02.2012
http://primanota.ru/cradle-of-filth/lovesick-for-mina-chords.htm
Привет, Гость.
Предлагаем пройти революционный курс по гитаре.
Подарок от PrimaNota.Ru, забирай!