PrimaNota.ru - самый крупный в мире бесплатный архив песенных текстов, аккордов, табулатур и нот


Cradle Of Filth - English Fire - текст песни, таба, видео

Регистрация Запомнить меня
Войти через:  Facebook Google Twitter Vk Yandex Mail.ru

Cradle Of Filth - English Fire - текст песни, таба, видео

Печатать
Просмотров: 146
Band:  Cradle Of Filth
Album: Nymphetamine
Song:  English Fire
Copyright (c)  RoadRunnerRecords 2004


.  - palm mute           /  - slide up to
\  - slide down to       ~  - vibrato
h  - hammer on           b  - Bend
p  - pull off            Suffixes for bend
t  - tap                 f  - full bend    h - half bend
ph - pinched harmonic    q  - quarter bend t - tap bend
*  - see comment         ^  - Hold bend    r release bend
x  - Stuccatto           ~  - vibrato bend
,  - slight palm mute    () - ghost note, sustained note
"  - tremolo note        <> - Trill

Tunning C G C F A D

|---------------------------------------------------------------------|
|---------------------------------------------------------------------|
|---------------------------------------------------------------------|
|-5-4-2-0-2----5--7--4--5----5-4-2-0-2--------------------------------|
|-5-4-2-0-2----3--5--2--3----5-4-2-0-2--fade out----------------------|
|-5-4-2-0-2--------------------5-4-2-0-2------------------------------|

|---------------------------------------------------------------------|
|---------------------------------------------------------------------|
|---------------------------------------------------------------------|
|-5-4-2-0-2---10-9-x-7-8--6-5-x-2-3-----------------------------------|
|-5-4-2-0-2---10-9-x-7-8--6-5-x-2-3-----------------------------------|
|-5-4-2-0-2---10-9-x-7-8--6-5-x-2-3-----------------------------------|

|---------------------------------------------------------------------|
|---------------------------------------------------------------------|
|---------------------------------------------------------------------|
|-3-3-x-x-x-x-3-6-3-6-6---3-3-x-x-x-x-3-6-3---------------------------|
|-3-3-x-x-x-x-3-6-3-6-6---3-3-x-x-x-x-3-6-3---------------------------|
|-3-3-x-x-x-x-3-6-3-6-6---3-3-x-x-x-x-3-6-3--7/-----------------------|

|---------------------------------------------------------------------|
|---------------------------------------------------------------------|
|----------------------------------------9-7--------------------------|
|-9-9-10-9-9-10-9---9-9-10--9-10--------------------------------------|
|---------------------------------------------------------------------|
|---------------------------------------------------------------------|

|---------------------------------------------------------------------|
|---------------------------------------------------------------------|
|---------------------------------------------------------------------|
|-9-10-9--7-9-7--9-10-9--5-7-5----------------------------------------|
|---------------------------------------------------------------------|
|---------------------------------------------------------------------|

|---------------------------------------------------------------------|
|---------------------------------------------------------------------|
|---------------------------------------------------------------------|
|-5-4-2-0-2---10-9-x-7-8--6-5-x-2-3-----------------------------------|
|-5-4-2-0-2---10-9-x-7-8--6-5-x-2-3-----------------------------------|
|-5-4-2-0-2---10-9-x-7-8--6-5-x-2-3-----------------------------------|

|---------------------------------------------------------------------|
|---------------------------------------------------------------------|
|---------------------------------------------------------------------|
|-3-3-x-x-x-x-3-6-3-6-6---3-3-x-x-x-x-3-6-3---------------------------|
|-3-3-x-x-x-x-3-6-3-6-6---3-3-x-x-x-x-3-6-3---------------------------|
|-3-3-x-x-x-x-3-6-3-6-6---3-3-x-x-x-x-3-6-3--7/-----------------------|

|---------------------------------------------------------------------|
|---------------------------------------------------------------------|
|---------------------------------------------------------------------|
|-5-4-2-0-2-----------------------------------------------------------|
|-5-4-2-0-2--fade out-------------------------------------------------|
|-5-4-2-0-2-----------------------------------------------------------|
Добавлено: 21.06.2012
Другие материалы по этой песне:

Страница создана 29.05.2012
http://primanota.ru/cradle-of-filth/english-fire-chords.htm
Привет, Гость.
Предлагаем пройти революционный курс по гитаре.
Подарок от PrimaNota.Ru, забирай!