PrimaNota.ru - самый крупный в мире бесплатный архив песенных текстов, аккордов, табулатур и нот


Cradle Of Filth - Deflowering The Maidenhead Displeasuring The Goddess - таба, видео

Регистрация Запомнить меня
Войти через:  Facebook Google Twitter Vk Yandex Mail.ru

Cradle Of Filth - Deflowering The Maidenhead Displeasuring The Goddess - таба, видео

Печатать
Просмотров: 58
-------------------------------------------------------------------------------
     Deflowering The Maidenhead, Displeasuring The Goddess - Cradle Of Filth
-------------------------------------------------------------------------------
Tabbed by: Obsimyx                                           Tuning: D Standard

0:00
d|-------------------------------------------------------------------------------------------------|
A|-------------------------------------------------------------------------------------------------|
F|-6-6-6-6-6-6-6-6-6-6-6-6-6-6-6-6-6-6-6-6-6-6-6-6-6-6-6-6-6-6-6-6---------------------------------|
C|-6-6-6-6-6-6-6-6-6-6-6-6-6-6-6-6-6-6-6-6-6-6-6-6-6-6-6-6-6-6-6-6-5-5-5-5-5-5-5-5-5-5-5-5-5-5-5-5-|
G|-4-4-4-4-4-4-4-4-4-4-4-4-4-4-4-4-4-4-4-4-4-4-4-4-4-4-4-4-4-4-4-4-5-5-5-5-5-5-5-5-5-5-5-5-5-5-5-5-|
D|-----------------------------------------------------------------3-3-3-3-3-3-3-3-3-3-3-3-3-3-3-3-|

d|---------------------------------|
A|---------------------------------|
F|---------------------------------|
C|-4-4-4-4-4-4-4-4-4-4-4-4-4-4-4-4-|
G|-4-4-4-4-4-4-4-4-4-4-4-4-4-4-4-4-|
D|-2-2-2-2-2-2-2-2-2-2-2-2-2-2-2-2-|

0:24
d|---------------------------------------------------------------------------------------------------|
A|---------------------------------------------------------------------------------------------------|
F|-----------0--6------------------------------------------------------------------------------------|
C|--------4-----5----------------------------16-16-16-16-17-17-17-17---------------------17-17-17-17-|
G|-----2--------4----------------14-14-14-14---------------------------------13-13-13-13-------------|
D|--0--------------------0-0-0-0-------------------------------------0-0-0-0-------------------------|

d|------------------------------------------------------------------------------------------------|
A|------------------------------------------------------------------------------------------------|
F|------------------------------------------------------------------------------------------------|
C|16-16-16-16---------------------16-16-16-16-17-17-17-17-16-16-16-16-----------------------------|
G|--------------------14-14-14-14-------------------------------------14-14-14-14-----------------|
D|------------0-0-0-0-------------------------------------------------------------4-4-4-4-7-7-7-7-|

0:33
Rhythm
d|-------------------------------------------------------------------------------------------------|
A|-------------------------------------------------------------------------------------------------|
F|-------------------------------------------------------------------------------------------------|
C|-5-5-5-5-5-5-5-5-5-5-5-5-5-5-5-5-5-5-5-5-5-5-5-5-5-5-5-5-5-5-5-5-8-8-8-8-8-8-8-8-8-8-8-8-8-8-8-8-|
G|-3-3-3-3-3-3-3-3-3-3-3-3-3-3-3-3-3-3-3-3-3-3-3-3-3-3-3-3-3-3-3-3-6-6-6-6-6-6-6-6-6-6-6-6-6-6-6-6-|
D|-------------------------------------------------------------------------------------------------|

d|------------------------------------------------|
A|------------------------------------------------|
F|------------------------------------------------|
C|11-11-11-11-11-11-11-11-11-11-11-11-11-11-11-11-|
G|9--9--9--9--9--9--9--9--9--9--9--9--9--9--9--9--|
D|------------------------------------------------|

Lead
d|-----------------------------------------------------------------|
A|-----------------------------------------------------------------|
F|-4-4-4-4-4-4-4-4-4-4-4-4-4-4-4-4-4-4-4-4-4-4-4-4-3-3-3-3-4-4-4-4-|
C|-----------------------------------------------------------------|
G|-2-2-2-2-2-2-2-2-2-2-2-2-2-2-2-2-2-2-2-2-2-2-2-2-1-1-1-1-2-2-2-2-|
D|-----------------------------------------------------------------|

d|---------------------------------------------------------------------------------|
A|---------------------------------------------------------------------------------|
F|/7-7-7-7-7-7-7-7-7-7-7-7-7-7-7-7/10-10-10-10-10-10-10-10-10-10-10-10-10-10-10-10-|
C|---------------------------------------------------------------------------------|
G|/5-5-5-5-5-5-5-5-5-5-5-5-5-5-5-5/8--8--8--8--8--8--8--8--8--8--8--8--8--8--8--8--|
D|---------------------------------------------------------------------------------|

0:39
d|-----------------------------------------------------------------------------|
A|-----------------------------------------------------------------------------|
F|-----------------------------------------------------------------------------|
C|---------------------16-16-16-16-17-17-17-17---------------------17-17-17-17-|
G|---------14-14-14-14---------------------------------13-13-13-13-------------|
D|-0-0-0-0-------------------------------------0-0-0-0-------------------------|

d|------------------------------------------------------------------------------------------------|
A|------------------------------------------------------------------------------------------------|
F|------------------------------------------------------------------------------------------------|
C|16-16-16-16---------------------16-16-16-16-17-17-17-17-16-16-16-16-----------------------------|
G|--------------------14-14-14-14-------------------------------------14-14-14-14-----------------|
D|------------0-0-0-0-------------------------------------------------------------4-4-4-4-7-7-7-7-|

0:45
Rhythm
d|-------------------------------------------------------------------------------------------------|
A|-------------------------------------------------------------------------------------------------|
F|-------------------------------------------------------------------------------------------------|
C|-5-5-5-5-5-5-5-5-5-5-5-5-5-5-5-5-5-5-5-5-5-5-5-5-5-5-5-5-5-5-5-5-8-8-8-8-8-8-8-8-8-8-8-8-8-8-8-8-|
G|-3-3-3-3-3-3-3-3-3-3-3-3-3-3-3-3-3-3-3-3-3-3-3-3-3-3-3-3-3-3-3-3-6-6-6-6-6-6-6-6-6-6-6-6-6-6-6-6-|
D|-------------------------------------------------------------------------------------------------|

d|------------------------------------------------|
A|------------------------------------------------|
F|------------------------------------------------|
C|11-11-11-11-11-11-11-11-11-11-11-11-11-11-11-11-|
G|9--9--9--9--9--9--9--9--9--9--9--9--9--9--9--9--|
D|------------------------------------------------|

Lead
d|-----------------------------------------------------------------|
A|-----------------------------------------------------------------|
F|-4-4-4-4-4-4-4-4-4-4-4-4-4-4-4-4-4-4-4-4-4-4-4-4-3-3-3-3-4-4-4-4-|
C|-----------------------------------------------------------------|
G|-2-2-2-2-2-2-2-2-2-2-2-2-2-2-2-2-2-2-2-2-2-2-2-2-1-1-1-1-2-2-2-2-|
D|-----------------------------------------------------------------|

d|---------------------------------------------------------------------------------|
A|---------------------------------------------------------------------------------|
F|/7-7-7-7-7-7-7-7-7-7-7-7-7-7-7-7/10-10-10-10-10-10-10-10-10-10-10-10-10-10-10-10-|
C|---------------------------------------------------------------------------------|
G|/5-5-5-5-5-5-5-5-5-5-5-5-5-5-5-5/8--8--8--8--8--8--8--8--8--8--8--8--8--8--8--8--|
D|---------------------------------------------------------------------------------|

0:51
Lead
d|--------------------------------------------------|
A|--------------------------------------------------|
F|--------------------------------------------------|
C|--------2--3-----6--3--2--------2--3--2-----4--5--|
G|--2--2--2--3--2--6--3--2--2--2--2--3--2--2--4--5--|
D|--0--0--2--3--0--6--3--2--0--0--2--3--2--0--4--5--|
    *  *        *           *  *

Rhythm
d|-----------------------------------------------------------------------------|
A|-----------------------------------------------------------------------------|
F|-----------------------------------------------------------------------------|
C|---------------------16-16-16-16-17-17-17-17---------------------17-17-17-17-|
G|---------14-14-14-14---------------------------------13-13-13-13-------------|
D|-0-0-0-0-------------------------------------0-0-0-0-------------------------|

d|------------------------------------------------------------------------------------------------|
A|------------------------------------------------------------------------------------------------|
F|------------------------------------------------------------------------------------------------|
C|16-16-16-16---------------------16-16-16-16-17-17-17-17-16-16-16-16-----------------------------|
G|--------------------14-14-14-14-------------------------------------14-14-14-14-----------------|
D|------------0-0-0-0-------------------------------------------------------------4-4-4-4-7-7-7-7-|

0:58
Rhythm
d|-------------------------------------------------------------------------------------------------|
A|-------------------------------------------------------------------------------------------------|
F|-------------------------------------------------------------------------------------------------|
C|-5-5-5-5-5-5-5-5-5-5-5-5-5-5-5-5-5-5-5-5-5-5-5-5-5-5-5-5-5-5-5-5-8-8-8-8-8-8-8-8-8-8-8-8-8-8-8-8-|
G|-3-3-3-3-3-3-3-3-3-3-3-3-3-3-3-3-3-3-3-3-3-3-3-3-3-3-3-3-3-3-3-3-6-6-6-6-6-6-6-6-6-6-6-6-6-6-6-6-|
D|-------------------------------------------------------------------------------------------------|

d|------------------------------------------------|
A|------------------------------------------------|
F|------------------------------------------------|
C|11-11-11-11-11-11-11-11-11-11-11-11-11-11-11-11-|
G|9--9--9--9--9--9--9--9--9--9--9--9--9--9--9--9--|
D|------------------------------------------------|

Lead
d|-----------------------------------------------------------------|
A|-----------------------------------------------------------------|
F|-4-4-4-4-4-4-4-4-4-4-4-4-4-4-4-4-4-4-4-4-4-4-4-4-3-3-3-3-4-4-4-4-|
C|-----------------------------------------------------------------|
G|-2-2-2-2-2-2-2-2-2-2-2-2-2-2-2-2-2-2-2-2-2-2-2-2-1-1-1-1-2-2-2-2-|
D|-----------------------------------------------------------------|

d|---------------------------------------------------------------------------------|
A|---------------------------------------------------------------------------------|
F|/7-7-7-7-7-7-7-7-7-7-7-7-7-7-7-7/10-10-10-10-10-10-10-10-10-10-10-10-10-10-10-10-|
C|---------------------------------------------------------------------------------|
G|/5-5-5-5-5-5-5-5-5-5-5-5-5-5-5-5/8--8--8--8--8--8--8--8--8--8--8--8--8--8--8--8--|
D|---------------------------------------------------------------------------------|

1:04
Rhythm
d|-------------------------------------------------------------------------------------------------|
A|-------------------------------------------------------------------------------------------------|
F|-------------------------------------------------------------------------------------------------|
C|-------------------------------------------------------------------------------------------------|
G|-4-4-4-4-6-6-6-6-7-7-7-7-6-6-6-6-4-4-4-4---------4-4-4-4-----------------------------------------|
D|-----------------------------------------7-7-7-7---------4-4-4-4-3-3-3-3-3-3-3-3-3-3-3-3-3-3-3-3-|

d|--------------------------------|
A|--------------------------------|
F|--------------------------------|
C|--------------------------------|
G|--------------------------------|
D|2-2-2-2-2-2-2-2-2-2-2-2-2-2-2-2-|

Lead
d|-------------------------------------------------------------------------------------------------|
A|-------------------------------------------------------------------------------------------------|
F|-----------------------------------------------------------------4-4-4-4-4-4-4-4-4-4-4-4-4-4-4-4-|
C|-------------------------------------------------------------------------------------------------|
G|-4-4-4-4-6-6-6-6-7-7-7-7-6-6-6-6-4-4-4-4---------4-4-4-4---------2-2-2-2-2-2-2-2-2-2-2-2-2-2-2-2-|
D|-----------------------------------------7-7-7-7---------4-4-4-4---------------------------------|

d|--------------------------------|
A|--------------------------------|
F|3-3-3-3-3-3-3-3-3-3-3-3-3-3-3-3-|
C|--------------------------------|
G|1-1-1-1-1-1-1-1-1-1-1-1-1-1-1-1-|
D|--------------------------------|

1:17
Rhythm
d|----------------------------------------------------------------------------------------------------------|
A|----------------------------------------------------------------------------------------------------------|
F|----------------------------------------------------------------------------------4~--------------------4~|
C|----------------------------------------------------------------------------------------------------------|
G|4-4-4-4-6-6-6-6-7-7-7-7-6-6-6-6-4-4-4-4---------4-4-4-4---------------------------------------------------|
D|----------------------------------------7-7-7-7---------4-4-4-4-3--3--3--3--3--3------2--2--2--2--2--2----|
                                                                  *  *  *  *  *  *  =   *  *  *  *  *  *  =

Lead
d|-------------------------------------------------------------------------------------------------|
A|-------------------------------------------------------------------------------------------------|
F|-----------------------------------------------------------------4-4-4-4-4-4-4-4-4-4-4-4-4-4-4-4-|
C|-------------------------------------------------------------------------------------------------|
G|-4-4-4-4-6-6-6-6-7-7-7-7-6-6-6-6-4-4-4-4---------4-4-4-4---------2-2-2-2-2-2-2-2-2-2-2-2-2-2-2-2-|
D|-----------------------------------------7-7-7-7---------4-4-4-4---------------------------------|

d|--------------------------------|
A|--------------------------------|
F|3-3-3-3-3-3-3-3-3-3-3-3-3-3-3-3-|
C|--------------------------------|
G|1-1-1-1-1-1-1-1-1-1-1-1-1-1-1-1-|
D|--------------------------------|

1:23
Rhythm
d|---------------------------------------------------------------------------------------------------------|
A|---------------------------------------------------------------------------------------------------------|
F|-6-6-6-6-6-6-6-6-6-6-6-6-6-6-6-6-6-6-6-6-6-6-6-6-6-6-6-6-6-6-6-6-----------------------------------------|
C|-6-6-6-6-6-6-6-6-6-6-6-6-6-6-6-6-6-6-6-6-6-6-6-6-6-6-6-6-6-6-6-6-5--5--5----------5----4--4--4----------4|
G|-4-4-4-4-4-4-4-4-4-4-4-4-4-4-4-4-4-4-4-4-4-4-4-4-4-4-4-4-4-4-4-4-5--5--5--5-5-5-5-5----4--4--4--4-4-4-4-4|
D|-----------------------------------------------------------------3--3--3--3-3-3-3-3----2--2--2--2-2-2-2-2|
                                                                            * * * *               * * * *

Lead
d|-------------------------------------------------------------------------------------------------|
A|-------------------------------------------------------------------------------------------------|
F|-6-6-6-6-6-6-6-6-6-6-6-6-6-6-6-6-6-6-6-6-6-6-6-6-6-6-6-6-6-6-6-6-4-4-4-4-4-4-4-4-4-4-4-4-4-4-4-4-|
C|-6-6-6-6-6-6-6-6-6-6-6-6-6-6-6-6-6-6-6-6-6-6-6-6-6-6-6-6-6-6-6-6---------------------------------|
G|-4-4-4-4-4-4-4-4-4-4-4-4-4-4-4-4-4-4-4-4-4-4-4-4-4-4-4-4-4-4-4-4-2-2-2-2-2-2-2-2-2-2-2-2-2-2-2-2-|
D|-------------------------------------------------------------------------------------------------|

d|--------------------------------|
A|--------------------------------|
F|3-3-3-3-3-3-3-3-3-3-3-3-3-3-3-3-|
C|--------------------------------|
G|1-1-1-1-1-1-1-1-1-1-1-1-1-1-1-1-|
D|--------------------------------|

1:29
d|-----------------------------------------------------------------------------|
A|-----------------------------------------------------------------------------|
F|-----------------------------------------------------------------------------|
C|---------------------16-16-16-16-17-17-17-17---------------------17-17-17-17-|
G|---------14-14-14-14---------------------------------13-13-13-13-------------|
D|-0-0-0-0-------------------------------------0-0-0-0-------------------------|

d|------------------------------------------------------------------------------------------------|
A|------------------------------------------------------------------------------------------------|
F|------------------------------------------------------------------------------------------------|
C|16-16-16-16---------------------16-16-16-16-17-17-17-17-16-16-16-16-----------------------------|
G|--------------------14-14-14-14-------------------------------------14-14-14-14-----------------|
D|------------0-0-0-0-------------------------------------------------------------4-4-4-4-7-7-7-7-|

1:35
Rhythm
d|-------------------------------------------------------------------------------------------------|
A|-------------------------------------------------------------------------------------------------|
F|-------------------------------------------------------------------------------------------------|
C|-5-5-5-5-5-5-5-5-5-5-5-5-5-5-5-5-5-5-5-5-5-5-5-5-5-5-5-5-5-5-5-5-8-8-8-8-8-8-8-8-8-8-8-8-8-8-8-8-|
G|-3-3-3-3-3-3-3-3-3-3-3-3-3-3-3-3-3-3-3-3-3-3-3-3-3-3-3-3-3-3-3-3-6-6-6-6-6-6-6-6-6-6-6-6-6-6-6-6-|
D|-------------------------------------------------------------------------------------------------|

d|------------------------------------------------|
A|------------------------------------------------|
F|------------------------------------------------|
C|11-11-11-11-11-11-11-11-11-11-11-11-11-11-11-11-|
G|9--9--9--9--9--9--9--9--9--9--9--9--9--9--9--9--|
D|------------------------------------------------|

Lead
d|-----------------------------------------------------------------|
A|-----------------------------------------------------------------|
F|-4-4-4-4-4-4-4-4-4-4-4-4-4-4-4-4-4-4-4-4-4-4-4-4-3-3-3-3-4-4-4-4-|
C|-----------------------------------------------------------------|
G|-2-2-2-2-2-2-2-2-2-2-2-2-2-2-2-2-2-2-2-2-2-2-2-2-1-1-1-1-2-2-2-2-|
D|-----------------------------------------------------------------|

d|---------------------------------------------------------------------------------|
A|---------------------------------------------------------------------------------|
F|/7-7-7-7-7-7-7-7-7-7-7-7-7-7-7-7/10-10-10-10-10-10-10-10-10-10-10-10-10-10-10-10-|
C|---------------------------------------------------------------------------------|
G|/5-5-5-5-5-5-5-5-5-5-5-5-5-5-5-5/8--8--8--8--8--8--8--8--8--8--8--8--8--8--8--8--|
D|---------------------------------------------------------------------------------|

1:41
d|-----------------------------------------------------------------------------|
A|-----------------------------------------------------------------------------|
F|-----------------------------------------------------------------------------|
C|---------------------16-16-16-16-17-17-17-17---------------------17-17-17-17-|
G|---------14-14-14-14---------------------------------13-13-13-13-------------|
D|-0-0-0-0-------------------------------------0-0-0-0-------------------------|

d|------------------------------------------------------------------------------------------------|
A|------------------------------------------------------------------------------------------------|
F|------------------------------------------------------------------------------------------------|
C|16-16-16-16---------------------16-16-16-16-17-17-17-17-16-16-16-16-----------------------------|
G|--------------------14-14-14-14-------------------------------------14-14-14-14-----------------|
D|------------0-0-0-0-------------------------------------------------------------4-4-4-4-7-7-7-7-|

1:47
Rhythm
d|-------------------------------------------------------------------------------------------------|
A|-------------------------------------------------------------------------------------------------|
F|-------------------------------------------------------------------------------------------------|
C|-5-5-5-5-5-5-5-5-5-5-5-5-5-5-5-5-5-5-5-5-5-5-5-5-5-5-5-5-5-5-5-5-8-8-8-8-8-8-8-8-8-8-8-8-8-8-8-8-|
G|-3-3-3-3-3-3-3-3-3-3-3-3-3-3-3-3-3-3-3-3-3-3-3-3-3-3-3-3-3-3-3-3-6-6-6-6-6-6-6-6-6-6-6-6-6-6-6-6-|
D|-------------------------------------------------------------------------------------------------|

d|------------------------------------------------|
A|------------------------------------------------|
F|------------------------------------------------|
C|11-11-11-11-11-11-11-11-11-11-11-11-11-11-11-11-|
G|9--9--9--9--9--9--9--9--9--9--9--9--9--9--9--9--|
D|------------------------------------------------|

Lead
d|-----------------------------------------------------------------|
A|-----------------------------------------------------------------|
F|-4-4-4-4-4-4-4-4-4-4-4-4-4-4-4-4-4-4-4-4-4-4-4-4-3-3-3-3-4-4-4-4-|
C|-----------------------------------------------------------------|
G|-2-2-2-2-2-2-2-2-2-2-2-2-2-2-2-2-2-2-2-2-2-2-2-2-1-1-1-1-2-2-2-2-|
D|-----------------------------------------------------------------|

d|---------------------------------------------------------------------------------|
A|---------------------------------------------------------------------------------|
F|/7-7-7-7-7-7-7-7-7-7-7-7-7-7-7-7/10-10-10-10-10-10-10-10-10-10-10-10-10-10-10-10-|
C|---------------------------------------------------------------------------------|
G|/5-5-5-5-5-5-5-5-5-5-5-5-5-5-5-5/8--8--8--8--8--8--8--8--8--8--8--8--8--8--8--8--|
D|---------------------------------------------------------------------------------|

1:54
d|-----------------------------------|
A|-------------------------0---------|
F|--------------------3---------3----|
C|--x--x--x--x--x--x-----------------|
G|--2--2--2--2--2--2-----------------|
D|--0--0--0--0--0--0-----------------|
    *  *  *  *  *  *

1:55
Rhythm
d|-------------------------------------------------------------------------|
A|-------------------------------------------------------------------------|
F|-------------------------------------------------------------------------|
C|-6-6-6-6-6-6-6-6-6-6-6-6-6-6-6-6-6-6-6-6-6-6-6-6-4-4-4-4-4-4-4-4-4-4-4-4-|
G|-6-6-6-6-6-6-6-6-6-6-6-6-6-6-6-6-6-6-6-6-6-6-6-6-4-4-4-4-4-4-4-4-4-4-4-4-|
D|-4-4-4-4-4-4-4-4-4-4-4-4-4-4-4-4-4-4-4-4-4-4-4-4-2-2-2-2-2-2-2-2-2-2-2-2-|

d|------------------------------------------------------------------------|
A|------------------------------------------------------------------------|
F|13-13-13-13-13-13-13-13-13-13-13-13-15-15-15-15-15-15-15-15-15-15-15-15-|
C|------------------------------------------------------------------------|
G|11-11-11-11-11-11-11-11-11-11-11-11-13-13-13-13-13-13-13-13-13-13-13-13-|
D|0--0--0--0--0--0--0--0--0--0--0--0--0--0--0--0--0--0--0--0--0--0--0--0--|

d|------------------------------------------------------------------------|
A|------------------------------------------------------------------------|
F|16-16-16-16-16-16-16-16-16-16-16-16-18-18-18-18-18-18-18-18-18-18-18-18-|
C|------------------------------------------------------------------------|
G|14-14-14-14-14-14-14-14-14-14-14-14-16-16-16-16-16-16-16-16-16-16-16-16-|
D|0--0--0--0--0--0--0--0--0--0--0--0--0--0--0--0--0--0--0--0--0--0--0--0--|

Lead
d|-------------------------------------------------------------------------|
A|-------------------------------------------------------------------------|
F|-13-13-13-13-13-13-13-13-13-13-13-13-15-15-15-15-15-15-15-15-15-15-15-15-|
C|-------------------------------------------------------------------------|
G|-11-11-11-11-11-11-11-11-11-11-11-11-13-13-13-13-13-13-13-13-13-13-13-13-|
D|-0--0--0--0--0--0--0--0--0--0--0--0--0--0--0--0--0--0--0--0--0--0--0--0--|

d|------------------------------------------------------------------------|
A|------------------------------------------------------------------------|
F|16-16-16-16-16-16-16-16-16-16-16-16-18-18-18-18-18-18-18-18-18-18-18-18-|
C|------------------------------------------------------------------------|
G|14-14-14-14-14-14-14-14-14-14-14-14-16-16-16-16-16-16-16-16-16-16-16-16-|
D|0--0--0--0--0--0--0--0--0--0--0--0--0--0--0--0--0--0--0--0--0--0--0--0--|

d|------------------------------------------------------------------------|
A|------------------------------------------------------------------------|
F|16-16-16-16-16-16-16-16-16-16-16-16-15-15-15-15-15-15-15-15-15-15-15-15-|
C|------------------------------------------------------------------------|
G|14-14-14-14-14-14-14-14-14-14-14-14-13-13-13-13-13-13-13-13-13-13-13-13-|
D|0--0--0--0--0--0--0--0--0--0--0--0--0--0--0--0--0--0--0--0--0--0--0--0--|

d|------------------------------------------------------------------------|
A|------------------------------------------------------------------------|
F|16-16-16-16-16-16-16-16-16-16-16-16-15-15-15-15-15-15-15-15-15-15-15-15-|
C|------------------------------------------------------------------------|
G|14-14-14-14-14-14-14-14-14-14-14-14-13-13-13-13-13-13-13-13-13-13-13-13-|
D|0--0--0--0--0--0--0--0--0--0--0--0--0--0--0--0--0--0--0--0--0--0--0--0--|

2:19
d|---------------------------------------------------------------------------------------------------------|
A|---------------------------------------------------------------------------------------------------------|
F|---------------------------------------------------------------------------------------------------------|
C|-----------------9--------------------------------------------------8--9----------10----------7----------|
G|-2-2-2-2-2-2-2-2-7--------------------------------------------------6--7----------8-----------5----------|
D|-0-0-0-0-0-0-0-0----0-0-0-0-0-0-0-0-0-0-0-0-0-0-0-0-0-0-0-0-0-0-0-0-------0-0-0-0-----0-0-0-0----0-0-0-0-|
   * * * * * * * *    * * * * * * * * * * * * * * * * * * * * * * * *       * * * *     * * * *    * * * *

d|-------------------------------------------------------------------------------------------------------|
A|-------------------------------------------------------------------------------------------------------|
F|-------------------------------------------------------------------------------------------------------|
C|8----------5--6----------------------------------------------------------------------------------------|
G|6----------3--4--9--8--5----------------------------------------------9--8--5--------------------------|
D|---0-0-0-0-------7--6--3--3-3-3-3-3-3-3-3-3-3-3-3-3-3-3-3-3-3-3-3-3-3-7--6--3--3-3-3-3-3-3-3-3-3-3-3-3-|
     * * * *                * * * * * * * * * * * * * * * * * * * * * *          * * * * * * * * * * * *

d|----------------------------------------| 
A|----------------------------------------| 
F|----------------------------------------| 
C|----------------------------------------| 
G|--------------------------------5--4--2-| 
D|3-3-3-3-4-4-4-4-4-4-4-4-4-4-4-4-3--2--0-| 
  * * * * * * * * * * * * * * * *

d|-----------------------------------------------------------------|
A|-----------------------------------------------------------------|
F|-----------------------------------------------------------------|
C|-----------------------------------------------------8-9---------|
G|-----------------------------------------------------6-7---------|
D|-0-0-0-0-0-0-0-0-0-0-0-0-0-0-0-0-0-0-0-0-0-0-0-0-0-0-----0-0-0-0-|
   * * * * * * * * * * * * * * * * * * * * * * * * * *     * * * * 

d|------------------------------------------------------------------------------------------------------|
A|------------------------------------------------------------------------------------------------------|
F|------------------------------------------------------------------------------------------------------|
C|10----------7----------8----------5--6----------------------------------------------------------------|
G|8-----------5----------6----------3--4--9--8--5----------------------------------------------9--8--5--|
D|----0-0-0-0----0-0-0-0----0-0-0-0-------7--6--3--3-3-3-3-3-3-3-3-3-3-3-3-3-3-3-3-3-3-3-3-3-3-7--6--3--|
      * * * *    * * * *    * * * *                * * * * * * * * * * * * * * * * * * * * * *

d|----------------------------------------------------------------|
A|----------------------------------------------------------------|
F|----------------------------------------------------------------|
C|----------------------------------------------------------------|
G|--------------------------------------------------------5--4--2-|
D|3-3-3-3-3-3-3-3-3-3-3-3-3-3-3-3-4-4-4-4-4-4-4-4-4-4-4-4-3--2--0-|
  * * * * * * * * * * * * * * * * * * * * * * * * * * * *

2:45
Solo Rhythm
d|-----------------------------------------------------------------|
A|-----------------------------------------------------------------|
F|-----------------------------------------------------------------|
C|-----------------------------------------------------8-9---------|
G|-----------------------------------------------------6-7---------|
D|-0-0-0-0-0-0-0-0-0-0-0-0-0-0-0-0-0-0-0-0-0-0-0-0-0-0-----0-0-0-0-|
   * * * * * * * * * * * * * * * * * * * * * * * * * *     * * * * 

d|------------------------------------------------------------------------------------------------------|
A|------------------------------------------------------------------------------------------------------|
F|------------------------------------------------------------------------------------------------------|
C|10----------7----------8----------5--6----------------------------------------------------------------|
G|8-----------5----------6----------3--4--9--8--5----------------------------------------------9--8--5--|
D|----0-0-0-0----0-0-0-0----0-0-0-0-------7--6--3--3-3-3-3-3-3-3-3-3-3-3-3-3-3-3-3-3-3-3-3-3-3-7--6--3--|
      * * * *    * * * *    * * * *                * * * * * * * * * * * * * * * * * * * * * *

d|----------------------------------------------------------------|
A|----------------------------------------------------------------|
F|----------------------------------------------------------------|
C|----------------------------------------------------------------|
G|--------------------------------------------------------5--4--2-|
D|3-3-3-3-3-3-3-3-3-3-3-3-3-3-3-3-4-4-4-4-4-4-4-4-4-4-4-4-3--2--0-|
  * * * * * * * * * * * * * * * * * * * * * * * * * * * *

Ashok's Solo
d|----------14--------16--------17--------19---------20--19--20--20--20~\------------------------|
A|---16--\------15--------17--------18--------20-----19--18--19--19------------------------------|
F|-\/19b~\---------16--------18--------19--------21------------------------/18-20-21-20-21-20----|
C|--------------------------------------------------------------------------------------------21-|
G|-----------------------------------------------------------------------------------------------|
D|-----------------------------------------------------------------------------------------------|

d|--8-12-11-12-11-8---------------------------------------------------------------------------------|
A|9-----------------9-10-9-10-9-6-------------------------------------------------------------------|
F|--------------------------------7-8-7-8-7-4---------------------------------------5-3-2-----5-----|
C|--------------------------------------------5-6-5-6-5-2-------------3-5-6-5-3-2-3-------5-3---5-3-|
G|--------------------------------------------------------3-4-3-4-3-0-------------------------------|
D|--------------------------------------------------------------------------------------------------|

                |Richard's Solo
d|--------------|-18-15-12----15-12-------12--------------------------------------18-20b-|
A|--------------|----------17-------17-15----17-15-12-17-15-12-----------17----17----21b-|
F|--------------|----------------------------------------------15~----15----15-----------|
C|--------------|--------------------------------------------------14--------------------|
G|5-6-5-6-5-----|------------------------------------------------------------------------|
D|----------3-1-|------------------------------------------------------------------------|

d|-11---12---13---10---11---12-9------11-8--------------------------9-12-9----9-12-|
A|-14b--15b--16b--13b--14b---------------------------8-11-8----8-11--------11------|
F|-------------------------------12-9------11-8-7-10--------10---------------------|
C|---------------------------------------------------------------------------------|
G|---------------------------------------------------------------------------------|
D|---------------------------------------------------------------------------------|

d|------------------12-15-12----12-15-22~--19-18b--16-15b---------------------------------------------------|
A|11-14-11----11-14----------14----------------------------18-17b--15-14b-----------------------------------|
F|---------12--------------------------------------------------------------13-14-13-14-13-14-13-14-13-14-13-|
C|----------------------------------------------------------------------------------------------------------|
G|----------------------------------------------------------------------------------------------------------|
D|----------------------------------------------------------------------------------------------------------|

d|-----------------|
A|-17--17--16--14--|
F|-----------------|
C|-14--14--13--11--|
G|-----------------|
D|-----------------|

3:09
Rhythm
d|-------------------------------------------------------------------------------------------------|
A|-------------------------------------------------------------------------------------------------|
F|-------------------------------------------------------------------------------------------------|
C|-------------------------------------------------------------------------------------------------|
G|-4-4-4-4-6-6-6-6-7-7-7-7-6-6-6-6-4-4-4-4---------4-4-4-4-----------------------------------------|
D|-----------------------------------------7-7-7-7---------4-4-4-4-3-3-3-3-3-3-3-3-3-3-3-3-3-3-3-3-|

d|--------------------------------|
A|--------------------------------|
F|--------------------------------|
C|--------------------------------|
G|--------------------------------|
D|2-2-2-2-2-2-2-2-2-2-2-2-2-2-2-2-|

Lead
d|-------------------------------------------------------------------------------------------------|
A|-------------------------------------------------------------------------------------------------|
F|-----------------------------------------------------------------4-4-4-4-4-4-4-4-4-4-4-4-4-4-4-4-|
C|-------------------------------------------------------------------------------------------------|
G|-4-4-4-4-6-6-6-6-7-7-7-7-6-6-6-6-4-4-4-4---------4-4-4-4---------2-2-2-2-2-2-2-2-2-2-2-2-2-2-2-2-|
D|-----------------------------------------7-7-7-7---------4-4-4-4---------------------------------|

d|--------------------------------|
A|--------------------------------|
F|3-3-3-3-3-3-3-3-3-3-3-3-3-3-3-3-|
C|--------------------------------|
G|1-1-1-1-1-1-1-1-1-1-1-1-1-1-1-1-|
D|--------------------------------|

3:22
Rhythm
d|----------------------------------------------------------------------------------------------------------|
A|----------------------------------------------------------------------------------------------------------|
F|----------------------------------------------------------------------------------4~--------------------4~|
C|----------------------------------------------------------------------------------------------------------|
G|4-4-4-4-6-6-6-6-7-7-7-7-6-6-6-6-4-4-4-4---------4-4-4-4---------------------------------------------------|
D|----------------------------------------7-7-7-7---------4-4-4-4-3--3--3--3--3--3------2--2--2--2--2--2----|
                                                                  *  *  *  *  *  *  =   *  *  *  *  *  *  =

Lead
d|-------------------------------------------------------------------------------------------------|
A|-------------------------------------------------------------------------------------------------|
F|-----------------------------------------------------------------4-4-4-4-4-4-4-4-4-4-4-4-4-4-4-4-|
C|-------------------------------------------------------------------------------------------------|
G|-4-4-4-4-6-6-6-6-7-7-7-7-6-6-6-6-4-4-4-4---------4-4-4-4---------2-2-2-2-2-2-2-2-2-2-2-2-2-2-2-2-|
D|-----------------------------------------7-7-7-7---------4-4-4-4---------------------------------|

d|--------------------------------|
A|--------------------------------|
F|3-3-3-3-3-3-3-3-3-3-3-3-3-3-3-3-|
C|--------------------------------|
G|1-1-1-1-1-1-1-1-1-1-1-1-1-1-1-1-|
D|--------------------------------|

3:28
Rhythm
d|-------------------------------------------------------------------------------------------------|
A|-------------------------------------------------------------------------------------------------|
F|-------------------------------------------------------------------------------------------------|
C|-----------------------------------------------------------------5--------------4----------------|
G|-4-4-4-4-6-6-6-6-7-7-7-7-6-6-6-6-4-4-4-4---------4-4-4-4---------5--------------4----------------|
D|-----------------------------------------7-7-7-7---------4-4-4-4-3--------------2----------------|

Lead
d|-------------------------------------------------------------------------------------------------|
A|-------------------------------------------------------------------------------------------------|
F|-----------------------------------------------------------------4-4-4-4-4-4-4-4-4-4-4-4-4-4-4-4-|
C|-------------------------------------------------------------------------------------------------|
G|-4-4-4-4-6-6-6-6-7-7-7-7-6-6-6-6-4-4-4-4---------4-4-4-4---------2-2-2-2-2-2-2-2-2-2-2-2-2-2-2-2-|
D|-----------------------------------------7-7-7-7---------4-4-4-4---------------------------------|

d|--------------------------------|
A|--------------------------------|
F|3-3-3-3-3-3-3-3-3-3-3-3-3-3-3-3-|
C|--------------------------------|
G|1-1-1-1-1-1-1-1-1-1-1-1-1-1-1-1-|
D|--------------------------------|

3:34
d|-----------------------------------------------------------------------------------------|
A|-----------------------------------------------------------------------------------------|
F|-----------------------------------------------------------------------------------------|
C|-9--------------------------------------------------8--9----------10----------7----------|
G|-7--------------------------------------------------6--7----------8-----------5----------|
D|----0-0-0-0-0-0-0-0-0-0-0-0-0-0-0-0-0-0-0-0-0-0-0-0-------0-0-0-0-----0-0-0-0----0-0-0-0-|
      * * * * * * * * * * * * * * * * * * * * * * * *       * * * *     * * * *    * * * *

d|-------------------------------------------------------------------------------------------------------|
A|-------------------------------------------------------------------------------------------------------|
F|-------------------------------------------------------------------------------------------------------|
C|8----------5--6----------------------------------------------------------------------------------------|
G|6----------3--4--9--8--5----------------------------------------------9--8--5--------------------------|
D|---0-0-0-0-------7--6--3--3-3-3-3-3-3-3-3-3-3-3-3-3-3-3-3-3-3-3-3-3-3-7--6--3--3-3-3-3-3-3-3-3-3-3-3-3-|
     * * * *                * * * * * * * * * * * * * * * * * * * * * *          * * * * * * * * * * * *

d|----------------------------------------| 
A|----------------------------------------| 
F|----------------------------------------| 
C|----------------------------------------| 
G|--------------------------------5--4--2-| 
D|3-3-3-3-4-4-4-4-4-4-4-4-4-4-4-4-3--2--0-| 
  * * * * * * * * * * * * * * * *

d|-----------------------------------------------------------------|
A|-----------------------------------------------------------------|
F|-----------------------------------------------------------------|
C|-----------------------------------------------------8-9---------|
G|-----------------------------------------------------6-7---------|
D|-0-0-0-0-0-0-0-0-0-0-0-0-0-0-0-0-0-0-0-0-0-0-0-0-0-0-----0-0-0-0-|
   * * * * * * * * * * * * * * * * * * * * * * * * * *     * * * * 

d|------------------------------------------------------------------------------------------------------|
A|------------------------------------------------------------------------------------------------------|
F|------------------------------------------------------------------------------------------------------|
C|10----------7----------8----------5--6----------------------------------------------------------------|
G|8-----------5----------6----------3--4--9--8--5----------------------------------------------9--8--5--|
D|----0-0-0-0----0-0-0-0----0-0-0-0-------7--6--3--3-3-3-3-3-3-3-3-3-3-3-3-3-3-3-3-3-3-3-3-3-3-7--6--3--|
      * * * *    * * * *    * * * *                * * * * * * * * * * * * * * * * * * * * * *

d|----------------------------------------------------------|
A|----------------------------------------------------------|
F|----------------------------------------------------------|
C|----------------------------------------------------------|
G|----------------------------------------------------------|
D|3-3-3-3-3-3-3-3-3-3-3-3-3-3-3-3-2-2-2-2-2-2-2-2-2-2-2-2-2-|
  * * * * * * * * * * * * * * * * * * * * * * * * * * * * *

4:11
Rhythm
d|-------------------------------------------------------------------------|
A|-------------------------------------------------------------------------|
F|-------------------------------------------------------------------------|
C|-6-6-6-6-6-6-6-6-6-6-6-6-6-6-6-6-6-6-6-6-6-6-6-6-4-4-4-4-4-4-4-4-4-4-4-4-|
G|-6-6-6-6-6-6-6-6-6-6-6-6-6-6-6-6-6-6-6-6-6-6-6-6-4-4-4-4-4-4-4-4-4-4-4-4-|
D|-4-4-4-4-4-4-4-4-4-4-4-4-4-4-4-4-4-4-4-4-4-4-4-4-2-2-2-2-2-2-2-2-2-2-2-2-|

d|------------------------------------------------------------------------|
A|------------------------------------------------------------------------|
F|13-13-13-13-13-13-13-13-13-13-13-13-15-15-15-15-15-15-15-15-15-15-15-15-|
C|------------------------------------------------------------------------|
G|11-11-11-11-11-11-11-11-11-11-11-11-13-13-13-13-13-13-13-13-13-13-13-13-|
D|0--0--0--0--0--0--0--0--0--0--0--0--0--0--0--0--0--0--0--0--0--0--0--0--|

d|------------------------------------------------------------------------|
A|------------------------------------------------------------------------|
F|16-16-16-16-16-16-16-16-16-16-16-16-18-18-18-18-18-18-18-18-18-18-18-18-|
C|------------------------------------------------------------------------|
G|14-14-14-14-14-14-14-14-14-14-14-14-16-16-16-16-16-16-16-16-16-16-16-16-|
D|0--0--0--0--0--0--0--0--0--0--0--0--0--0--0--0--0--0--0--0--0--0--0--0--|

Lead
d|-------------------------------------------------------------------------|
A|-------------------------------------------------------------------------|
F|-13-13-13-13-13-13-13-13-13-13-13-13-15-15-15-15-15-15-15-15-15-15-15-15-|
C|-------------------------------------------------------------------------|
G|-11-11-11-11-11-11-11-11-11-11-11-11-13-13-13-13-13-13-13-13-13-13-13-13-|
D|-0--0--0--0--0--0--0--0--0--0--0--0--0--0--0--0--0--0--0--0--0--0--0--0--|

d|------------------------------------------------------------------------|
A|------------------------------------------------------------------------|
F|16-16-16-16-16-16-16-16-16-16-16-16-18-18-18-18-18-18-18-18-18-18-18-18-|
C|------------------------------------------------------------------------|
G|14-14-14-14-14-14-14-14-14-14-14-14-16-16-16-16-16-16-16-16-16-16-16-16-|
D|0--0--0--0--0--0--0--0--0--0--0--0--0--0--0--0--0--0--0--0--0--0--0--0--|

d|------------------------------------------------------------------------|
A|------------------------------------------------------------------------|
F|16-16-16-16-16-16-16-16-16-16-16-16-15-15-15-15-15-15-15-15-15-15-15-15-|
C|------------------------------------------------------------------------|
G|14-14-14-14-14-14-14-14-14-14-14-14-13-13-13-13-13-13-13-13-13-13-13-13-|
D|0--0--0--0--0--0--0--0--0--0--0--0--0--0--0--0--0--0--0--0--0--0--0--0--|

d|------------------------------------------------------------------------|
A|------------------------------------------------------------------------|
F|16-16-16-16-16-16-16-16-16-16-16-16-15-15-15-15-15-15-15-15-15-15-15-15-|
C|------------------------------------------------------------------------|
G|14-14-14-14-14-14-14-14-14-14-14-14-13-13-13-13-13-13-13-13-13-13-13-13-|
D|0--0--0--0--0--0--0--0--0--0--0--0--0--0--0--0--0--0--0--0--0--0--0--0--|

4:24
Rhythm
d|-------------------------------------------------------------------------|
A|-------------------------------------------------------------------------|
F|-------------------------------------------------------------------------|
C|-6-6-6-6-6-6-6-6-6-6-6-6-6-6-6-6-6-6-6-6-6-6-6-6-4-4-4-4-4-4-4-4-4-4-4-4-|
G|-6-6-6-6-6-6-6-6-6-6-6-6-6-6-6-6-6-6-6-6-6-6-6-6-4-4-4-4-4-4-4-4-4-4-4-4-|
D|-4-4-4-4-4-4-4-4-4-4-4-4-4-4-4-4-4-4-4-4-4-4-4-4-2-2-2-2-2-2-2-2-2-2-2-2-|

d|------------------------------------------------------------------------|
A|------------------------------------------------------------------------|
F|13-13-13-13-13-13-13-13-13-13-13-13-15-15-15-15-15-15-15-15-15-15-15-15-|
C|------------------------------------------------------------------------|
G|11-11-11-11-11-11-11-11-11-11-11-11-13-13-13-13-13-13-13-13-13-13-13-13-|
D|0--0--0--0--0--0--0--0--0--0--0--0--0--0--0--0--0--0--0--0--0--0--0--0--|

d|------------------------------------------------------------|
A|------------------------------------------------------------|
F|16-16-16-16-16-16-16-16-16-16-16-16-------------------------|
C|------------------------------------5-5-5-5-5-5-5-5-5-5-5-5-|
G|14-14-14-14-14-14-14-14-14-14-14-14-5-5-5-5-5-5-5-5-5-5-5-5-|
D|0--0--0--0--0--0--0--0--0--0--0--0--3-3-3-3-3-3-3-3-3-3-3-3-|

Lead
d|-------------------------------------------------------------------------|
A|-------------------------------------------------------------------------|
F|-13-13-13-13-13-13-13-13-13-13-13-13-15-15-15-15-15-15-15-15-15-15-15-15-|
C|-------------------------------------------------------------------------|
G|-11-11-11-11-11-11-11-11-11-11-11-11-13-13-13-13-13-13-13-13-13-13-13-13-|
D|-0--0--0--0--0--0--0--0--0--0--0--0--0--0--0--0--0--0--0--0--0--0--0--0--|

d|------------------------------------------------------------------------|
A|------------------------------------------------------------------------|
F|16-16-16-16-16-16-16-16-16-16-16-16-18-18-18-18-18-18-18-18-18-18-18-18-|
C|------------------------------------------------------------------------|
G|14-14-14-14-14-14-14-14-14-14-14-14-16-16-16-16-16-16-16-16-16-16-16-16-|
D|0--0--0--0--0--0--0--0--0--0--0--0--0--0--0--0--0--0--0--0--0--0--0--0--|

d|------------------------------------------------------------------------|
A|------------------------------------------------------------------------|
F|16-16-16-16-16-16-16-16-16-16-16-16-15-15-15-15-15-15-15-15-15-15-15-15-|
C|------------------------------------------------------------------------|
G|14-14-14-14-14-14-14-14-14-14-14-14-13-13-13-13-13-13-13-13-13-13-13-13-|
D|0--0--0--0--0--0--0--0--0--0--0--0--0--0--0--0--0--0--0--0--0--0--0--0--|

d|------------------------------------------------------------|
A|------------------------------------------------------------|
F|16-16-16-16-16-16-16-16-16-16-16-16-------------------------|
C|------------------------------------5-5-5-5-5-5-5-5-5-5-5-5-|
G|14-14-14-14-14-14-14-14-14-14-14-14-5-5-5-5-5-5-5-5-5-5-5-5-|
D|0--0--0--0--0--0--0--0--0--0--0--0--3-3-3-3-3-3-3-3-3-3-3-3-|

4:36
Lead
d|-----------------------------------------------------------------------------------------------------|
A|-7-0-5-7-5-0-8-0-7-8-7-0-10-0-8-10-8-0-8-0-7-8-7-0-7-0-5-7-5-0-8-0-7-8-7-0-10-0-8-10-8-0-8-0-7-8-7-0-|
F|-----------------------------------------------------------------------------------------------------|
C|-----------------------------------------------------------------------------------------------------|
G|-----------------------------------------------------------------------------------------------------|
D|-----------------------------------------------------------------------------------------------------|

d|----------------------------------------------------------------------------------------------------|
A|7-0-5-7-5-0-8-0-7-8-7-0-10-0-8-10-8-0-8-0-7-8-7-0-7-0-5-7-5-0-8-0-7-8-7-0-10-0-8-10-8-0-8-0-7-8-7-0-|
F|----------------------------------------------------------------------------------------------------|
C|----------------------------------------------------------------------------------------------------|
G|----------------------------------------------------------------------------------------------------|
D|----------------------------------------------------------------------------------------------------|

d|----------------------------------------------------------------------------------------------------|
A|10-0-8-10-8-0-12-0-10-12-10-0-10-0-8-10-8-0-8-0-7-8-7-0-10-0-8-10-8-0-12-0-10-12-10-0-10-0-8-10-8-0-|
F|----------------------------------------------------------------------------------------------------|
C|----------------------------------------------------------------------------------------------------|
G|----------------------------------------------------------------------------------------------------|
D|----------------------------------------------------------------------------------------------------|

d|----------------------------------------------------------------------------------------|
A|8-0-7-8-7-0-10-0-8-10-8-0-12-0-10-12-10-0-13-0-12-13-12-0-15-0-13-15-13-0-10-0-8-10-8-0-|
F|----------------------------------------------------------------------------------------|
C|----------------------------------------------------------------------------------------|
G|----------------------------------------------------------------------------------------|
D|----------------------------------------------------------------------------------------|

d|-----------------------------------------------------|
A|12-0-10-12-10-0-13-0-12-13-12-0-15-13-17-15-17-15-13-|
F|-----------------------------------------------------|
C|-----------------------------------------------------|
G|-----------------------------------------------------|
D|-----------------------------------------------------|

Rhythm
d|----------------------------------------------------------------------------------|
A|----------------------------------------------------------------------------------|
F|----------------------------------------------------------------------------------|
C|--9--------4--------7--------5----4--------2--------4--------5--------7--------9--|
G|--7--------2--------5--------3----2--------0--------2--------3--------5--------7--|
D|----------------------------------2--------0--------------------------------------|

5:01
d|-----------------------------------------------------------------------------------------------------|
A|-----------------------------------------------------------------------------------------------------|
F|-9-9-9-9-9-9-9-9-9-9-9-9-9-9-9-9-7-7-7-7-7-7-7-7-7-7-7-7-7-7-7-7-9--9--9--9--9--9--9--9--9--9--9--9--|
C|-7-7-7-7-7-7-7-7-7-7-7-7-7-7-7-7-7-7-7-7-7-7-7-7-7-7-7-7-7-7-7-7-10-10-10-10-10-10-10-10-10-10-10-10-|
G|-0-0-0-0-0-0-0-0-0-0-0-0-0-0-0-0-8-8-8-8-8-8-8-8-8-8-8-8-8-8-8-8-10-10-10-10-10-10-10-10-10-10-10-10-|
D|-----------------------------------------------------------------8--8--8--8--8--8--8--8--8--8--8--8--|

d|----------------------------------------------------|
A|----------------------------------------------------|
F|9--9--9--9------------------------------------------|
C|10-10-10-10-10-10-10-10-10-10-10-10-9-9-9-9-9-9-9-9-|
G|10-10-10-10-7--7--7--7--7--7--7--7--7-7-7-7-7-7-7-7-|
D|8--8--8--8--0--0--0--0--0--0--0--0--4-4-4-4-4-4-4-4-|

5:50
Ashok's Solo
d|--------------------------------------------------------------------------------------|
A|-----------------------------------------------------------------------9--10--9-----9-|
F|-----6--7--8b~--------------5br----------------4--5--4-----4-----6--9------------9----|
C|-/6------------/4--7--5--7-------7~------2--5-----------5-----7-----------------------|
G|--------------------------------------3-----------------------------------------------|
D|--------------------------------------------------------------------------------------|

d|-12-10-7-10-14-10-7-10-15-10-7-10-17-10-7-10-20~--/17--17--19--19b----pb19--19~-------------17b--17~-|
A|---------------------------------------------------------------------------------/15b--15~-----------|
F|-----------------------------------------------------------------------------------------------------|
C|-----------------------------------------------------------------------------------------------------|
G|-----------------------------------------------------------------------------------------------------|
D|-----------------------------------------------------------------------------------------------------|
   t          t          t          t          

d|-----------15b--15b--pb15--pb15rb~------------------------------------------------------------------------|
A|pb13r--13~----------------------------------------------------------------------15----15-17-15-17-18-17-18|
F|-----------------------------------------------------14----14-16-14-16-17-16-17----17---------------------|
C|-----------------------------------17-14-16-17-16-17----17------------------------------------------------|
G|----------------------------------------------------------------------------------------------------------|
D|----------------------------------------------------------------------------------------------------------|

d|-21-b-~--------------------------------------------------------------------|
A|---------------------------------------------------------------------------|
F|---------------------------------------------------------------------------|
C|---------------------------------------------------------------------------|
G|---------------------------------------------------------------------------|
D|---------------------------------------------------------------------------|
slowly decrease pitch--------------------------------------------------------|

Solo Rhythm
d|-----------------------------------------------------------------------------------------------------|
A|-----------------------------------------------------------------------------------------------------|
F|-9-9-9-9-9-9-9-9-9-9-9-9-9-9-9-9-7-7-7-7-7-7-7-7-7-7-7-7-7-7-7-7-9--9--9--9--9--9--9--9--9--9--9--9--|
C|-7-7-7-7-7-7-7-7-7-7-7-7-7-7-7-7-7-7-7-7-7-7-7-7-7-7-7-7-7-7-7-7-10-10-10-10-10-10-10-10-10-10-10-10-|
G|-0-0-0-0-0-0-0-0-0-0-0-0-0-0-0-0-8-8-8-8-8-8-8-8-8-8-8-8-8-8-8-8-10-10-10-10-10-10-10-10-10-10-10-10-|
D|-----------------------------------------------------------------8--8--8--8--8--8--8--8--8--8--8--8--|

d|----------------------------------------------------|
A|----------------------------------------------------|
F|9--9--9--9------------------------------------------|
C|10-10-10-10-10-10-10-10-10-10-10-10-9-9-9-9-9-9-9-9-|
G|10-10-10-10-7--7--7--7--7--7--7--7--7-7-7-7-7-7-7-7-|
D|8--8--8--8--0--0--0--0--0--0--0--0--4-4-4-4-4-4-4-4-|

6:15
Rhythm
d|----------------------------------|-----------------------------------|-----------------------------------|
A|----------------------------------|-----------------------------------|-----------------------------------|
F|----------------------------------|-----------------------------------|-----------------------------------|
C|6--6--6--6--6--------5------4-----|-6--6--6--6--6--------5------4-----|-6--6--6--6--6--------5------4-----|
G|6--6--6--6--6--------5------4-----|-6--6--6--6--6--------5------4-----|-6--6--6--6--6--------5------4-----|
D|4--4--4--4--4--------3------2-----|-4--4--4--4--4--------3------2-----|-4--4--4--4--4--------3------2-----|
                                      *  *                                *  *  *

d|----------------------------------|
A|----------------------------------|
F|----------------------------------|
C|6--6--6--6--6--------5------4-----|
G|6--6--6--6--6--------5------4-----|
D|4--4--4--4--4--------3------2-----|
  *  *  *  *

Lead
d|----------------------------------|-----------------------------------|-----------------------------------|
A|----------------------------------|-----------------------------------|-----------------------------------|
F|-------------------4-4-4-4-3-3-3-3|--------------------4-4-4-4-3-3-3-3|--------------------4-4-4-4-3-3-3-3|
C|6--6--6--6--6---------------------|-6--6--6--6--6---------------------|-6--6--6--6--6---------------------|
G|6--6--6--6--6------2-2-2-2-1-1-1-1|-6--6--6--6--6------2-2-2-2-1-1-1-1|-6--6--6--6--6------2-2-2-2-1-1-1-1|
D|4--4--4--4--4---------------------|-4--4--4--4--4---------------------|-4--4--4--4--4---------------------|
                                      *  *                                *  *  *

d|----------------------------------|
A|----------------------------------|
F|-------------------4-4-4-4-3-3-3-3|
C|6--6--6--6--6---------------------|
G|6--6--6--6--6------2-2-2-2-1-1-1-1|
D|4--4--4--4--4---------------------|
  *  *  *  *

************************************

| /   slide up
| \   slide down
| h   hammer-on
| p   pull-off
| ~   vibrato
| +   harmonic
| x   Mute note
| b   Bend
| pb  Pre-bend
| br  Bend release
| pbr Pre-bend release
| brb Bend release bend
| *   Palm mute
| =   Artificial harmonic
| t   Tap

************************************
Добавлено: 07.03.2016
Вам также может быть интересно:
Другие материалы по этой песне:
  • Аккорды и текст

Страница создана 07.03.2016
http://primanota.ru/cradle-of-filth/deflowering-maidenhead-displeasuring-goddess-chords.htm
Привет, Гость.
Предлагаем пройти революционный курс по гитаре.
Подарок от PrimaNota.Ru, забирай!