PrimaNota.ru - самый крупный в мире бесплатный архив песенных текстов, аккордов, табулатур и нот


Counting Crows - Colorblind 1 - текст песни, таба, видео

Регистрация Запомнить меня
Войти через:  Facebook Google Twitter Vk Yandex Mail.ru

Counting Crows - Colorblind 1 - текст песни, таба, видео

Печатать
Просмотров: 94
Уроки эстрадного вокала в Санкт-Петербурге


Music by Adam Duritz and Charles Gillingham


E-----------3-------|---------5-------|---------1-------|-1-------1-------||
B-----1---1---1---1-|---1---1---1---1-|---1---1---1---1-|---1---1---1---1-||
G---2---2-------2---|-2---2-------2---|-2---2-------2---|-----2-------2---||
D-------------------|-----------------|-3---------------|-----------------||
A---0---------------|-1---------------|-----------------|-1---------------||
E-------------------|-----------------|-----------------|-----------------||

At the end of the song the following is played several times:

E---1-------1-------|-1-------1-------||
B-----1---1---1---1-|---1---1---1---1-||
G-------2-------2---|-----2-------2---||
D-------------------|-----------------||
A-------------------|-1---------------||
E---1---------------|-----------------||

End on:

E-------------------||
B---1---------------||
G---2---------------||
D-------------------||
A-------------------||
E---1---------------||

NOTE: I often leave out the last section of the main verse and repeat
-5---5- several
---7---
times, it sounds quite similar.

Добавлено: 14.10.2013
Другие материалы по этой песне:
  • Аккорды и текст

Страница создана 14.10.2013
http://primanota.ru/counting-crows/colorblind-1-chords.htm
Привет, Гость.
Предлагаем пройти революционный курс по гитаре.
Подарок от PrimaNota.Ru, забирай!