PrimaNota.ru - самый крупный в мире бесплатный архив песенных текстов, аккордов, табулатур и нот


Counting Crows - Goodnight Elisabeth - аккорды и текст, таба, видео

Регистрация Запомнить меня
Войти через:  Facebook Google Twitter Vk Yandex Mail.ru

Counting Crows - Goodnight Elisabeth - аккорды и текст, таба, видео

Печатать
Просмотров: 163
Авторы музыки: Adam Duritz
Авторы текста: Adam Duritz
Goodnight Elisabeth
Counting Crows
		   Tab: "Goodnight Elisabeth," by Counting Crows
Transcribed by Michael A Mazur (mmazur@wpi.edu)


Intro: Guitar 1, clean electric
||-----------------------------------|-----------------------------|
||-----------5-----5b(7)r5-----5-----|-----5-----5b(7)r5-----5-----|
||*-------------4-----------------4--|--------4-----------------4--|
||*----------------------------------|-----------------------------|
||--------0--------------------------|-----------------------------|
||---4/5--------------------5--------|--4-----------------4--------|



|-----------------------------|---------------------------------||
|-----5-----5b(7)r5-----5-----|-----3------------3-----5p3------||
|--------4-----------------4--|---------------2-----2-------2--*||
|-----------------------------|--0-----0h2h4-------------------*||
|-----------------------------|---------------------------------||
|--3-----------------3--------|---------------------------------||

On the repeat, guitar 2, acoustic enters, strumming
A E G6    Dsus2
Guitar 3 also enters, with a little distortion and a Leslie speaker,
doubling the chords played by guitar 2

Verse: (The bass plays A-G#-G-F#, one note per chord)

A                   E
i was wasted in the afternoon
G6           Dsus2
waiting on a train
i woke up in pieces and elisabeth had disappeared again
i wish you were inside of me
i hope that you're ok
i hope you're resting quietly
i just wanted to say

Chorus:
A E G D
goodnight elisabeth

Verse:
we couldn't all be cowboys
so some of us are clowns
and some of us are dancers no the midway
we roam from town to town
i hope that everybody can find a little flame
me, i say my prayers,
then i just light myself on fire
and i walk out on the wire once again
and i say

goodnight elisabeth

Solo (over A E G6    Dsus2):
|--------------------------|-----------------------|
|---------10--12--12b(14)--|--12b(14)r(12)--10h12--|
|--2/6/7-------------------|-----------------------|
|--------------------------|-----------------------|
|--------------------------|-----------------------|
|--------------------------|-----------------------|



|------------------------------------------------|
|--12b(14)r(12)--10--12b(15)--12b(14)--10h12-----|
|---------------------------------------------9--|
|------------------------------------------------|
|------------------------------------------------|
|------------------------------------------------|



|--------------------|--------------------------|
|--------------------|---------10p9--10--10/12--|
|--2/6--7--7p6--7/9--|--6/7h9-------------------|
|--------------------|--------------------------|
|--------------------|--------------------------|
|--------------------|--------------------------|



|-----------------------------17----------------|
|----------15p14------17b(19)------(19)r17--15--|
|--7/9/14---------14----------------------------|
|-----------------------------------------------|
|-----------------------------------------------|
|-----------------------------------------------|



|-------------------------------|
|--(15)r14--12--(14)r12--10~~~--|
|-------------------------------|
|-------------------------------|
|-------------------------------|
|-------------------------------|

Verse:
i will wait for you in Baton Rouge
i'll miss you down in New Orleans
i'll wait for you while she slips in something comfortable
and i'll miss you when i'm slipping in between
if you wrap yourself in daffodils
i will wrap myself in pain
and if you're the queen of California
baby i am the king of the rain
and i say

goodnight elisabeth

repeat A E G6    Dsus2 until end     
Добавлено: 03.09.2013
Другие материалы по этой песне:
  • Аккорды и текст

Страница создана 02.03.2012
http://primanota.ru/counting-crows/goodnight-elisabeth-chords.htm
Привет, Гость.
Предлагаем пройти революционный курс по гитаре.
Подарок от PrimaNota.Ru, забирай!