PrimaNota.ru - самый крупный в мире бесплатный архив песенных текстов, аккордов, табулатур и нот


Corrs - Miracle - текст песни, таба, видео

Регистрация Запомнить меня
Войти через:  Facebook Google Twitter Vk Yandex Mail.ru

Corrs - Miracle - текст песни, таба, видео

Печатать
Просмотров: 164
Авторы: Andrea Corr, Caroline Corr, Jim Corr, Sharon Corr

Song name: Miracle
Author: The Corrs
Album: "Borrowed Heaven" (Bonus track)
Transcribed by: Patricio Carbajal   <>


I) Background Guitar:

Intro:

E)--------------8--8---------8--8-----|
B)------------------------------------|
G)---9h10p9---------9--9--------------|
D)------------------------------------|
A)------------------------------------|
E)------------------------------------|


Part 1

E)--------------8--8------------8--8------------8--8--------8--8--------|
B)----------------------------------------------------------------------|
G)---9h10p9---------10--10--------10--10---------9--9-------------------|
D)----------------------------------------------------------------------|
A)----------------------------------------------------------------------|
E)----------------------------------------------------------------------|


Part 2

E)---6--------6--------8--------6---------6-------6------------6-------6----------------------------|
B)------6--------6--------6--------6-------------------8---6-------8-------8---6---8----------------|
G)---------7--------7--------7--------7-------------------------------------------------------(4x)--|
D)--------------------------------------------------------------------------------------------------|
A)--------------------------------------------------------------------------------------------------|
E)--------------------------------------------------------------------------------------------------|

Chords:

       A#     Am7     F     C     C2
E)----6-------6------6----8-----x----------|
B)----6-------6------7----8-----8----------|
G)----7-------6------6----6-----6----------|
D)----8-------6------8----6-----6----------|
A)----8-------7------9----7-----7----------|
E)----6-------6------6----8-----8----------|
*You can use the standard-form chords as well, but this way sounds better.  A capo on 
5th fret will make it easier.


(Intro)

Verse 1

(Part 1) (No chords)
You let an open window
Breathe over your bed
A whisper in the moonlight
The miracle of life

Verse 2

(Part 1)
A#                       F     Am7
        Synchronized emotion

A#                       F    Am7
         No battle left to fight

A#                    F         Am7
         Harmony in motion

                                  A#     F     Am7
         The miracle of life


Pre Chorus:

(Part 1)

         A#     F             Am7        A#
And oh.... precious and lonely your are

     F                Am7          A#
Cherished as only your are

                        F
Not born but already

   Am7               C      (A#)
Changing our world


Chorus:

(Part 2)
                A#
Beautiful girl

                    C              F              C2
(You're a beautiful, wonderful miracle)

                A#
Beautiful boy

                    C              F              C2
(You're a beautiful, wonderful miracle)


Verse 3

(Part 1) (Same chords as above)
I want for you the ocean
Filled deep with all your dreams
No feeling left unopened
The miracle of life

Pre Chorus

(Part 1) (Same chords as above)
And oh so precious and lovely you are
Cherished as only your are
Not born but already changing our world

Chorus

(Part 2) (Same chords as above)
Beautiful boy
(You're a beautiful, wonderful miracle)
Beautiful girl
(You're a beautiful, wonderful miracle)


Solo: (No background) (Same chords as Chorus)
This is a violin solo, but here is it anyway, if you want to give it a try

E)---------------------------------------------------------------------------------------|
B)------------------------------------------8--10--10p8----------------------------------|
G)---7--7--9h10-----7--9h10---10 ---------------------10--9-----7----9p7p5---7---10--10--|
D)---------------------------------------------------------------------------------------|
A)---------------------------------------------------------------------------------------|
E)---------------------------------------------------------------------------------------|

E)--------------------------------------------------------------------------------------|
B)--8---8h10---8---8p6p5----------------------------------------------------------------|
G)------------------------------------7--9h10-----7--9h10--------7--9h10--9--10--9--10--|
D)--------------------------------------------------------------------------------------|
A)--------------------------------------------------------------------------------------|
E)--------------------------------------------------------------------------------------|

E)-------------------------------------------------------------------------------|
B)--8---8h10---8---5-------------------------------------------------------------|
G)---------------------------7----9p7p5----7----5----5---3---2---0---------------|
D)-------------------------------------------------------------------------------|
A)-------------------------------------------------------------------------------|
E)-------------------------------------------------------------------------------|


Pre Chorus

(Part 1) (No chords for first two lines)
Oh so precious and lonely your are
Cherished as only your are

Not born but already changing our world

Chorus

(Part 2) (Same chords as above)
Beautiful boy
(You're a beautiful, wonderful miracle)
Beautiful girl
(You're a beautiful, wonderful miracle)

Bridge:

(No Background) (Same chords as Chorus)
And when it comes to lovin' we'll give you all we've got
Beginning at the bottom we're never gonna stop
Little one

Outro (Chorus chords 6x)


Final Chord

        C
E)----6------|
B)----7------|
G)----6------|
D)----8------|
A)--- 9------|
E)----6------|

(Piano fade away)
Добавлено: 20.07.2012
Другие материалы по этой песне:
  • Аккорды и текст

Страница создана 20.07.2012
http://primanota.ru/corrs/miracle-chords.htm
Привет, Гость.
Предлагаем пройти революционный курс по гитаре.
Подарок от PrimaNota.Ru, забирай!