PrimaNota.ru - самый крупный в мире бесплатный архив песенных текстов, аккордов, табулатур и нот


Corrs - Ooh La La - таба, видео

Регистрация Запомнить меня
Войти через:  Facebook Google Twitter Vk Yandex Mail.ru

Corrs - Ooh La La - таба, видео

Печатать
Просмотров: 128
Title: Ooh La La
Artist: The Corrs/ Rod Stewart
By: Patricio Carbajal
Any correction or suggestions please to---> jpatricio_87@hotmail.com
This is a very good and easy song.

Capo on 1st for this Song (All Chords and Tab relative to Capo)

Intro:
(2x)
e------------------------------|
B-----3---3---3---3------------|
G---2---0-----------------0----|
D-----------2---0---0---2------|
A------------------------------|
E------------------------------|

e------------------------------|
B-----3---3---3---3------------|
G---2---0----------------------|
D-----------2---0---------0----|
A-------------------0---2------|
E------------------------------|

The whole Song it's just D and Em7:

D
Poor old Granddad,
Em7
I laughed at all his words
D
I thought he was a bitter man
Em7
he spoke of women's ways
D
they'll trap you when they use you
Em7
before you even now
D
for love is blind and you're far to kind
Em7
don't ever let it show

Chorus:

D                              Em7
I wish that I knew what I know now, when I was younger
D                              Em7
I wish that I knew what I know now when I was stronger

(Same Chords)
the can-can such a pretty show
will steal your heart away
but backstage back on earth again
the dressing rooms are grey
they come on strong and it ain't too long
for they make you feel a man
but love is blind and you soon will find
you're just a boy again

Chorus

Solo (Here it's the same D Em7, but a little bit faster)

(Same Chords)
when you want her lips, you get her cheek
makes you wonder where you are
if you want some more then she's fast asleep
leaves you twinkling with the stars
poor young grandson there's nothing I can say
you'll have to learn, just like me
and that's the hardest way

Chorus (2x)

Instrumental (Same Chords)

ooh la la
ooh la la, la la, yeah

End (same as intro)

e------------------------------|
B-----3---3---3---3------------|
G---2---0-----------------0----|
D-----------2---0---0---2------|
A------------------------------|
E------------------------------|

e------------------------------|
B-----3---3---3---3------------|
G---2---0----------------------|
D-----------2---0---------0----|
A-------------------0---2------|
E------------------------------|

And finishes with a slow D

D   xx0232
Em7 020020
Добавлено: 04.07.2012
Другие материалы по этой песне:
  • Аккорды и текст

Страница создана 04.07.2012
http://primanota.ru/corrs/ooh-la-la-chords.htm
Привет, Гость.
Предлагаем пройти революционный курс по гитаре.
Подарок от PrimaNota.Ru, забирай!