PrimaNota.ru - самый крупный в мире бесплатный архив песенных текстов, аккордов, табулатур и нот


Coral - Eskimo Lament - аккорды и текст, таба, видео

Регистрация Запомнить меня
Войти через:  Facebook Google Twitter Vk Yandex Mail.ru

Coral - Eskimo Lament - аккорды и текст, таба, видео

Печатать
Просмотров: 169
Eskimo Lament
Coral
Intro:
Bass guitar:	[G---------------------------------------------------------------------------------------
D---------------------------------------------------------------------------------------
A-------------------------2-------------------------------------------------------------
e  ---0--0--0--3--3-2--2----3--2--0-----------------------------------------------------]
 
Clean guitar:	     G                 F#    B
[E --3----3--3---2-s--7-------------------------------------------------------------------
B --3----3--3---2-s--7-------------------------------------------------------------------
G --4----4--4---3-s--8-------------------------------------------------------------------
D ---------------------------------------------------------------------------------------
A ---------------------------------------------------------------------------------------
e ---------------------------------------------------------------------------------------]

Chords:		G: [-3-5-5-4-3-3-]
F# [-2-4-4-3-2-2-]
B  [-7-9-9-8-7-7-]
C  [-x-3-5-5-5-3-]
A  [-x-0-2-2-2-0-]

G             F#        B
Verse:		Why do I listen to sad songs?
    G                               F#               B
To make me feel good when I know I've done wrong

C               G
Pre-chorus:	But I can't understand.
C                        G
Why she's holding my hand.
C                G        A
No I can't understand, at all

G                    F#               B
Chorus:		I'm waiting for the heartaches to come
    C
got to keep on holding on for you
Добавлено: 27.01.2014
Другие материалы по этой песне:
  • Аккорды и текст

Страница создана 19.04.2012
http://primanota.ru/coral/eskimo-lament-chords.htm
Привет, Гость.
Предлагаем пройти революционный курс по гитаре.
Подарок от PrimaNota.Ru, забирай!