PrimaNota.ru - самый крупный в мире бесплатный архив песенных текстов, аккордов, табулатур и нот


Coral - Confessions Of A.D.D.D - текст песни, таба, видео

Регистрация Запомнить меня
Войти через:  Facebook Google Twitter Vk Yandex Mail.ru

Coral - Confessions Of A.D.D.D - текст песни, таба, видео

Печатать
Просмотров: 120
Band:  The Coral
Song:  Confessions of A.D.D.D.
Album: Magic and Medicine

Bass riff:

g:------------------------------------------------------
d:------------------------------------------------------
a:0----/5---3--0-0----/5---3--0--0-----etc.-------------
e:------------------------------------------------------

Guitar bit:

e:-----5----------------5-------------5---5---------------5----------5-5-
b:-----5-----------5----5---------5-------5-----------5---5------------5-
g:---------5--7----------------7----------------5--7-----------5--7------
d:-----------------------------------------------------------------------
a:-----------------------------------------------------------------------
e:-5---------------------------------------------------------------------

Thats the main riff.  If you start off playing the bass riff on a
normal guitar, then it the proper guitar part fits in quite nicely.

I haven't a clue what they play for
"If you think its you then let me know".

When it slows down, they play something like this:

e:-----0-------0-------0-------0------------------------
b:---1---1---1---1---1---1---1---1----------------------
g:-2-------0-------2-------0-------etc.-----------------
d:------------------------------------------------------
a:------------------------------------------------------
e:------------------------------------------------------
"This is what he said..."

Then its:
e:-----------------
b:----5-6--5-------
g:5h7--------7--5--
d:-----------------
a:-----------------
e:-----------------

For the solo, just improvise using the A pentatonic scale,
and various other bits and pieces:

e:------------------------------------------------------
b:------------------------------------------------------
g:-7--6--5----------------------------------------------
d:---------7-6---5--------------------------------------
a:-------------------7-5--------------------------------
e:------------------------8---5-5-5---------------------

e:12----12-----12---------------------------------------
b:---10----10-------------------------------------------
g:------------------------------------------------------
d:-------------------"Through the tears..."-------------
a:------------------------------------------------------
e:------------------------------------------------------

---

e:12-10----------10-12-10----------12-------------------
b:------13-10-13----------13-10-13----------------------
g:------------------------------------------------------
d:------------------------------------------------------
a:------------------------------------------------------
e:------------------------------------------------------

e:12-10-------12-10-------12-10-12-10-12-10-12-10-------
b:------13-10-------13-10-------------------------------
g:------------------------------------------------------
d:------------------------------------------------------
a:------------------------------------------------------
e:------------------------------------------------------

Then just make weird whooshing sounds into the microphone
and your done!

All my own tabbing.

Stew C

_________________________________________________________________
     
Добавлено: 31.07.2013
Другие материалы по этой песне:
  • Аккорды и текст

Страница создана 18.03.2012
http://primanota.ru/coral/confessions-of-addd-chords.htm
Привет, Гость.
Предлагаем пройти революционный курс по гитаре.
Подарок от PrimaNota.Ru, забирай!