PrimaNota.ru - самый крупный в мире бесплатный архив песенных текстов, аккордов, табулатур и нот


Comeback Kid - Give And Take - текст песни, бас-таба, видео

Регистрация Запомнить меня
Войти через:  Facebook Google Twitter Vk Yandex Mail.ru

Comeback Kid - Give And Take - текст песни, бас-таба, видео

Печатать
Просмотров: 198
 ~ let ring

 tuning: G,D,A,Db

intro
-----------------------------------------------------------------------|
-----------------------------------------------------------------------|
-------------------------------42-22-2-22-2-00-0--2-44-4-44-4------222-|
-0~--0~--000-0-00-0~--0----000-------------------7-------------777-----|

intro cont.
--------------------------------------------------------------------------------------------|
--------------------------------------------------------------------------------------------|
-444---2-00-0-00-0--42-22-2-22-2-00-0--2-44-4-44-4------22-2-------------------------4-4454-|
-----3-------------3------------------3------------77-7------7(8X)-7(8X)-7(8X)-7(8X)--------|

3X
------------------------------------------|
------------------------------------------|
-0-000-000-----------4-444-4454-4-444-445-|
-----------7-777-777----------------------|

-------------------------------------------------------|
-------------------------------------------------------|
-0-000-000-----------4~-------------4~-----------------|
-----------7-777-777----0~--0-00-00----0---------0~-00-|

2X
-----------------------------|
-----------------------------|
---------------0(16X)-2(16X)-|
-0(16X)-3(16X)---------------|

2X                                                          <1st end> <2nd end>
-----------------------------------------------------------I---------I----------|I
-----------------------------------------------------------I---------I----------|I
-----------------------------------00-000-0-000-000--------I---------I----------|I
-00-000-0-000-000-33-333-3-333-333------------------77-777-I-2-2-2-2-I--2-2-2---|I

i guess thats it.. if you have a better one plz send it to me..
  xxSID
Добавлено: 26.02.2012
Другие материалы по этой песне:
  • Аккорды и текст

Страница создана 26.02.2012
http://primanota.ru/comeback-kid/give-and-take-chords.htm
Привет, Гость.
Предлагаем пройти революционный курс по гитаре.
Подарок от PrimaNota.Ru, забирай!