PrimaNota.ru - самый крупный в мире бесплатный архив песенных текстов, аккордов, табулатур и нот


Coldplay - Adventure Of A Lifetime - бас-таба, видео

Регистрация Запомнить меня
Войти через:  Facebook Google Twitter Vk Yandex Mail.ru

Coldplay - Adventure Of A Lifetime - бас-таба, видео

Печатать
Просмотров: 418
Авторы: Guy Berryman, Will Champion, Chris Martin, Jon Buckland

-------------------------------------------------------------------------------
                            Adventure Of A Lifetime - Coldplay
-------------------------------------------------------------------------------
Tabbed by: Muser00
Tuning: Standard

Intro 0:14

G|--------|
D|--------|
A|--------|
E|-0~--0~-|

Chorus

G|-----------------------------------------------------------|x2
D|-----------------------------------------------------------|
A|--5--5-x5---3h5-------------------------------------x3~----|
E|-----------------3--3-x3---0h3--5--5-x5---0h3--5--5-----3~-|

Verse

G|-------------------------------------------------------------|
D|-------------------------------------------------------------|
A|-5-5--5-x5---------------------------------------------3~----|
E|------------------3--3-x3---0h3--5--5-x5---0h3--5--5-5----3~-|

G|------------------------------------------------------------|
D|------------------------------------------------------------|
A|--5--5-x5---3h5---------------------------------------3~----|
E|-----------------3--3-x3---0h3--5--5-x5---0h3--5--5-5----3~-|

G|-------------------------------------------------------------|x3
D|-------------------------------------------------------------|
A|-5-5--5-x5---3h5---------------------------------------3~----|
E|------------------3--3-x3---0h3--5--5-x5---0h3--5--5-5----3~-|

Pre-Chorus

G|-------------------------------------------------------------|
D|-------------------------------------------------------------|
A|-5-5--5-x5---3h5---------------------------------------------|
E|------------------3--3-x3---0h3--5~--------------------0~-0~-|

Chorus

G|-------------------------------------------------------------|x2
D|-------------------------------------------------------------|
A|-5-5--5-x5---3h5---------------------------------------3~----|
E|------------------3--3-x3---0h3--5--5-x5---0h3--5--5-5----3~-|

Verse

G|-------------------------------------------------------------|
D|-------------------------------------------------------------|
A|-5-5--5-x5---------------------------------------------3~----|
E|------------------3--3-x3---0h3--5--5-x5---0h3--5--5-5----3~-|

G|------------------------------------------------------------|
D|------------------------------------------------------------|
A|--5--5-x5---3h5---------------------------------------3~----|
E|-----------------3--3-x3---0h3--5--5-x5---0h3--5--5-5----3~-|

G|-------------------------------------------------------------|
D|-------------------------------------------------------------|
A|-5-5--5-x5---3h5---------------------------------------3~----|
E|------------------3--3-x3---0h3--5--5-x5---0h3--5--5-5----3~-|

Pre-Chorus

G|-------------------------------------------------------------|
D|-------------------------------------------------------------|
A|-5-5--5-x5---3h5---------------------------------------------|
E|------------------3--3-x3---0h3--5~--------------------0~-0~-|

Chorus

G|-------------------------------------------------------------|
D|-------------------------------------------------------------|
A|-5-5--5-x5---3h5---------------------------------------3~----|
E|------------------3--3-x3---0h3--5--5-x5---0h3--5--5-5----3~-|

G|----------------------------------------------------------------|
D|-----------------------------------------5-7/-------------------|
A|-5-5--5-x5---3h5------------------------------------------3~----|
E|------------------3--3-x3---0h3--5--5-x5------0h3--5--5-5----3~-|

Bridge

G|---------------------------------------------|x2
D|---------------------------------------------|
A|-5~------------------------------------------|
E|-------------3~----------5~----------------3-|

G|---------------------5-----------------------|
D|-------------5~---5h7--7---------------------|
A|-5~------------------------------------------|
E|-------------------------5~------------0~-0~-|

Chorus

G|-------------------------------------------------------------|x5
D|-------------------------------------------------------------|
A|-5-5--5-x5---3h5---------------------------------------3~----|
E|------------------3--3-x3---0h3--5--5-x5---0h3--5--5-5----3~-|

G|----------------------------------------------------------------|
D|-----------------------------------------5-7/-------------------|
A|-5-5--5-x5---3h5------------------------------------------3~----|
E|------------------3--3-x3---0h3--5--5-x5------0h3--5--5-5----3~-|

G|-------------------------------------------------------------|x2
D|-------------------------------------------------------------|
A|-5-5--5-x5---3h5---------------------------------------3~----|
E|------------------3--3-x3---0h3--5--5-x5---0h3--5--5-5----3~-|

100% Sure about this tab! Enjoy! :)

| /  slide up
| \  slide down
| h  hammer-on
| p  pull-off
| ~  vibrato
| +  harmonic
| x  Mute note
===============================================================================
Добавлено: 15.02.2016
Другие материалы по этой песне:
  • Аккорды и текст

Страница создана 15.02.2016
http://primanota.ru/coldplay/adventure-of-a-lifetime-chords.htm
Привет, Гость.
Предлагаем пройти революционный курс по гитаре.
Подарок от PrimaNota.Ru, забирай!