PrimaNota.ru - самый крупный в мире бесплатный архив песенных текстов, аккордов, табулатур и нот


Cold - Ocean - текст песни, таба, видео

Регистрация Запомнить меня
Войти через:  Facebook Google Twitter Vk Yandex Mail.ru

Cold - Ocean - текст песни, таба, видео

Печатать
Просмотров: 270
This is my first tab, so please, if anything is wrong, let me know, but don't do it as 
as possible.

~ - let ring

Come in after "chorus" on
D--------------|
A--------------|
F---44444444---|
C---44444444---|
G---22222222---|
C--------------|

Intro
Guitar 1

D----7--7-7--5--5-5--10--10-10--7-7-7b9-|
A---------------------------------------|
F---6--6-6--2--2-2--7---7--7---6--6-----|
C---------------------------------------|
G---------------------------------------|
C---------------------------------------|

Guitar 2 (all palm-muted)

D---------------------------------------------------------------|
A---------------------------------------------------------------|
F---------------------------------------------------------------|
C---------------------------------------------------------------|
G---44444444444444400000000000000005555555555555554444444444444-|
C---------------------------------------------------------------|

Verse

Guitar 2 (palm muted except for last couple chords)

D-------------------------------------------------------------------|
A-------------------------------------------------------------------|
F-------------------------------------------------------------------|
C-------------------------------------------------------------6*66--|
G---444444444444444400000000000000005555555555555555444444444*4*44--|
C-------------------------------------------------------------------| X2

Chorus #1

Both Guitars (don't know the strumming)

D-----------------------------------------------------------|
A-----------------------------------------------------------|
F-----------------9-------11------------------9-------11----|
C---4---0-------7-------9----92-4---0-------7--------9----9-|
G---4---0-----7-------9------92-4---0-----7--------9------9-|
C---4---0---7-------9--------92-4---0---7--------9--------9-|

Bridge
For some reason, the low note that they hit is a low B, but I think it still sounds good 
a C, so.........your choice

Both Guitars
D------------------------------------|
A------------------------------------|
F------------------------------------|
C------------------------------------|
G---4------------------9---2---------|
C---4--6-7-0-6-7-0-6-7-9---2---------|        X2

Kind of a transition part

Guitar 1
D-------------------|
A-------------------|
F---2~~-------------|
C---2~~2~~4~~0~~----|
G---0~~2~~4~~0~~----|
C------2~~4~~0~~----|   X2

Chorus #2 (repeated multiple times)

Both Guitars (don't know strumming)
D--------------------|
A--------------------|
F--------------------|
C---7----2----4----0-|
G---7----2----4----0-|
C---7----2----4----0-|

It goes in this order:
Intro
Verse
Chorus #1
Intro
Verse
Chorus #1
Bridge
Transition
Chorus #2

Then end on

C---4~~
G---4~~
C---4~~

I really enjoy this song and I hate it that people overlook it. Thanks for reading it!
Добавлено: 23.04.2012
Другие материалы по этой песне:
  • Аккорды и текст

Страница создана 23.04.2012
http://primanota.ru/cold/ocean-chords.htm
Привет, Гость.
Предлагаем пройти революционный курс по гитаре.
Подарок от PrimaNota.Ru, забирай!