PrimaNota.ru - самый крупный в мире бесплатный архив песенных текстов, аккордов, табулатур и нот


Cold - So Long June - текст песни, таба, видео

Регистрация Запомнить меня
Войти через:  Facebook Google Twitter Vk Yandex Mail.ru

Cold - So Long June - текст песни, таба, видео

Печатать
Просмотров: 241
Уроки эстрадного вокала в Санкт-Петербурге
Artist: Cold
Title: So Long June
Album: Superfiction

Tuning: (low to high) C F Bb Eb G C

Tabbed by: FireReaverX


Verse
C |--------------------------------------------------|
G |-------13-----------13-----------0----------0-----|
Eb|--------------------------------------------------|
Bb|----14----14-----14----14-----12---12----12---12--|
F |-12-------12\-11-------11\-10------10\-9-------9\-|
C |--------------------------------------------------|
                                                       4x
C |----------------------------------0---------------|
G |--------------------------------0-----------------|
Eb|------------------------------7-------------------|
Bb|-10-10-10-10-10-10-10-10\---9---------------------|
F |--8--8--8--8--8--8--8--8\-7-----------------------|
C |--------------------------------------------------|


Chorus
C |-1---------------0-------------------------------------------------|
G |-1---------------0-------------------------------------------------|
Eb|-2---------------1-----------------5-------3-------2---------------|
Bb|-3---------------2-----------------5-------3-------2---------------|
F |-3---------------2-----------------3-------1-------0---------------|
C |-1---------------0-------------------------------------------------|

C |-1---------------0-------------------------------------------------|
G |-1---------------0-------------------------------------------------|
Eb|-2---------------1-----------------7-------5-------3---------------|
Bb|-3---------------2-----------------7-------5-------3---------------|
F |-3---------------2-----------------5-------3-------1---------------|
C |-1---------------0-------------------------------------------------|


Bridge
C |-------------------------------------------------|
G |-------13----------13----------13----------13----|
Eb|----14----14----14----14----14----14----14----14-|
Bb|-------------------------------------12----------|
F |-12----------14----------15----------------------|
C |-------------------------------------------------|
                                                      2x
C |-------------------------------------------------|
G |-------13----13----13----------12----12----12----|
Eb|----14----14----14----14----14----14----14----14-|
Bb|-15----------------------14----------------------|
F |-------------------------------------------------|
C |-------------------------------------------------|

C |-------------------------------------------------|
G |-------13----------13----------13----------13----|
Eb|----14----14----14----14----14----14----14----14-|
Bb|-------------------------------------12----------|
F |-12----------14----------15----------------------|
C |-------------------------------------------------|

C |-----------------------------------------|
G |-------13----13----13--------------------|
Eb|----14----14----14----14-----------------|
Bb|-15----------------------2-2-2-2-2-------|
F |-------------------------2-2-2-2-2-------|
C |-------------------------0-0-0-0-0-------|


Chorus


Ending
C |---------------------------------------------------0-------------|
G |-------13-----------13-----------0----------0------0-------------|
Eb|--------------------------------------------------10-------------|
Bb|----14----14-----14----14-----12---12----12---12--10-------------|
F |-12-------12\-11-------11\-10------10\-9-------9\--8-------------|
C |-----------------------------------------------------------------|


| /  slide up
| \  slide down
| b  bend
| h  hammer-on
| p  pull-off
| v  vibrato
| x  mute string
| .  palm mute
===============================================================================
Добавлено: 12.07.2012
Другие материалы по этой песне:
  • Аккорды и текст

Страница создана 12.07.2012
http://primanota.ru/cold/so-long-june-chords.htm
Привет, Гость.
Предлагаем пройти революционный курс по гитаре.
Подарок от PrimaNota.Ru, забирай!