PrimaNota.ru - самый крупный в мире бесплатный архив песенных текстов, аккордов, табулатур и нот


Clawfinger - Two Sides - текст песни, таба, видео

Регистрация Запомнить меня
Войти через:  Facebook Google Twitter Vk Yandex Mail.ru

Clawfinger - Two Sides - текст песни, таба, видео

Печатать
Просмотров: 253
Авторы музыки: Zak Tell, André Skaug, Erlend Ottem, Jocke Skog, Bård Torstensen
Авторы текста: Zak Tell, André Skaug, Erlend Ottem, Jocke Skog, Bård Torstensen
Artist: Clawfinger
Song: Two Sides
Tabber: Satan Man
Tabbers Email: morbid_damnation666@hotmail.com
Tuning: CGCFAD

Intro
                         
D|-------------------------|----------------|
A|-------------------------|----------------|
F|-------------------------|----------------|
C|-5----5----4-/5----5---5-|--------------5-|
G|-5----5----4-/5----5---5-|-0-0----0-0---5-|
C|-5----5----4-/5----5---5-|-0-0----0-0---5-|


Verse

D|----------------------|
A|----------------------|
F|----------------------|
C|-5--------------------|
G|-5--0-0----0-0----0-0-|
C|-5--0-0----0-0----0-0-|

Chorus
                                               last chorus ends on:
D|--------------------------|---------------------------|---|
A|--------------------------|---------------------------|---|
F|-8------------------------|-10------------------------|---|
C|-8--6--5----5-5--5-5--5-6-|-10--8--5----5-5--5-5--5-6-|-5-|
G|-6--6--5----5-5--5-5--5-6-|-8---8--5----5-5--5-5--5-6-|-5-|
C|----6--5----5-5--5-5--5-6-|-----8--5----5-5--5-5--5-6-|-5-|


Post Chorus

D|------------------------------------------------|
A|------------------------------------------------|
F|----------6-------------------------6-6-------6-|
C|----------6-------------------------6-6-------6-|
G|-0-0--0-0-4---0--0-0-0-0----0-0-0-0-4-4-0-0-0-4-|
C|-0-0--0-0-----0--0-0-0-0----0-0-0-0-----0-0-0---|
Добавлено: 09.06.2012
Другие материалы по этой песне:
  • Аккорды и текст

Страница создана 17.03.2012
http://primanota.ru/clawfinger/two-sides-chords.htm
Привет, Гость.
Предлагаем пройти революционный курс по гитаре.
Подарок от PrimaNota.Ru, забирай!