PrimaNota.ru - самый крупный в мире бесплатный архив песенных текстов, аккордов, табулатур и нот


Clash - Louie Louie - бас-таба, видео

Регистрация Запомнить меня
Войти через:  Facebook Google Twitter Vk Yandex Mail.ru

Clash - Louie Louie - бас-таба, видео

Печатать
Просмотров: 140
Уроки эстрадного вокала в Санкт-Петербурге
repeat the whole song..it's very easy to get the timing..:D
G|----------------------------------|
D|----------------------------------|
A|----------5-5--7-7-7--55----------|
E|---5-5-5--------------------------|

G|----------------------------------|
D|----------------------------------|
A|----------5-5--7-7-7--55----------|
E|---5-5-5--------------------------|
Добавлено: 25.08.2013
Другие материалы по этой песне:
  • Аккорды и текст

Страница создана 25.08.2013
http://primanota.ru/clash/louie-louie-chords.htm
Привет, Гость.
Предлагаем пройти революционный курс по гитаре.
Подарок от PrimaNota.Ru, забирай!