PrimaNota.ru - самый крупный в мире бесплатный архив песенных текстов, аккордов, табулатур и нот


Clash - Jimmie Jazz - аккорды и текст, видео

Регистрация Запомнить меня
Войти через:  Facebook Google Twitter Vk Yandex Mail.ru

Clash - Jimmie Jazz - аккорды и текст, видео

Печатать
Просмотров: 133
Jimmie Jazz
Clash
Well, here it is. I looked everywhere for the tabs for this song, and
have only found the bass tab. So, here's my version. The solo sounds
good to me, but by all means, let me know if you have a better way of
playing this song.

Chords:		[E--0----0----2-----2---
B--2----0----2-----3---
G--2----1----2-----2---
D--2----2----4-----0---
A--0----2----4---------
E------------2---------]
   A    E    F#m   D

The chord progression throughout the whole song is this:
(all these chords are strummed 3x)   A  F#m   A  D   A  E
(these are each strummed once)       A D A E

     A         F#m
The police walked in for Jimmy Jazz
   A             D
I said, he ain't here, but he sure went past
A            E      A   D  A  E
Oh, you're looking for Jimmy Jazz
A             F#m
Sattamassagana for Jimmy Dread
A               D
Cut off his ears and chop off his head
A            E      A   D   A  E
Police cam looking for Jimmy Jazz
A                       F#m
So if you're gonna take a message 'cross the town
A                 D
Maybe put it down somewhere over the other side
A             E      A  D  A  E
See it gets to Jimmy Jazz
A           F#m
Don't you bother me, not anymore
A            D
I can't take this tale, oh, no more
A              E       A   D  A  E
It's all around, Jimmy Jazz
A       F#m A       D
J-a-zee zee J-a-zed zed
A        E          A   D  A  E
J-a-zed zed Jimmy Jazz
            A
And then it sucks, he said, suck that
A         F#m          A
So go look all around, you can try your luck, brother
D
And see what you found
      A            E              A        D    A
But I guarantee you it ain't your day your day, it ain't
E
your day.
A
Chop Chop!

Solo:		[E----------------------------------------------5s0--------
B-----------------2---2-------2-2-2-2h0---5b-5-----3-1----
G------2///14-2-2---2-------2-----------2---------------2-
D-2s4-------------------2s4-------------------------------
A---------------------------------------------------------
E---------------------------------------------------------

E-----------------------------0-2-5-9-12-9-12-9s7-9-7-5----
B-1-3-5-3-1----------------1b2-----------------------------
G----------------2-2-----2---------------------------------
D------------2s4-----2s4-----------------------------------
A----------------------------------------------------------
E----------------------------------------------------------]

There's another riff played after the solo, but it's pretty much the same
type of scale thingy. I hope this makes some sense to you. The Clash rule!
Добавлено: 15.02.2014
Другие материалы по этой песне:
  • Аккорды и текст

Страница создана 15.02.2014
http://primanota.ru/clash/jimmie-jazz-chords.htm
Привет, Гость.
Предлагаем пройти революционный курс по гитаре.
Подарок от PrimaNota.Ru, забирай!