PrimaNota.ru - самый крупный в мире бесплатный архив песенных текстов, аккордов, табулатур и нот


Clash - Four Horsemen - текст песни, бас-таба, видео

Регистрация Запомнить меня
Войти через:  Facebook Google Twitter Vk Yandex Mail.ru

Clash - Four Horsemen - текст песни, бас-таба, видео

Печатать
Просмотров: 131
Intro
G----------------|
D----------------|
A----7-----------|
E----0-----------|

Verse 1                         x3
G---------------------------------|-----------|
D-9-9-9-9-7-7-7-7-2-2-2-2-4-4-4-4-|-----------|
A---------------------------------|-7---------|
E---------------------------------|-----------|

Verse 2                         x3
G---------------------------------|-----------|
D-9-9-9-9-7-7-7-7-2-2-2-2-4-4-4-4-|-----------|
A---------------------------------|-7---------|
E---------------------------------|-----------|

Verse 3                         x3
G---------------------------------|-----------|
D-9-9-9-9-7-7-7-7-2-2-2-2-4-4-4-4-|-----------|
A---------------------------------|-7---------|
E---------------------------------|-----------|

Chorus/bridge         x4
G-----------------------|
D-----------------------|
A-7---------------------|
E-----------5-----7-----|
                        x8
G-------------------------|-----------|
D-------------------------|-----------|
A-7-7-4-4-7----4-7----6-9-|-7---------|
E-----------5------7------|-----------|

Verse 4                         x3
G---------------------------------|-----------|
D-9-9-9-9-7-7-7-7-2-2-2-2-4-4-4-4-|-----------|
A---------------------------------|-7---------|
E---------------------------------|-----------|

Verse 5                         x3
G---------------------------------|-----------|
D-9-9-9-9-7-7-7-7-2-2-2-2-4-4-4-4-|-----------|
A---------------------------------|-7---------|
E---------------------------------|-----------|
Outro
G-------------------------------------|------------------------|
D-------------------------------------|---8-9-11--14--11-9-8---|
A-9--------7--------9--------7--------|-9--------------------9-|
E-------------------------------------|------------------------|

G------------------------|------------------------|------------------------|
D---8-9-11--14--11-9-8---|---8-9-11--14--11-9-8---|---8-9-11--14--11-9-8---|
A-9--------------------9-|-9--------------------9-|-9--------------------9-|
E------------------------|------------------------|------------------------|

****************************************************************************
Thats the best i can come up with, the verse i think needs some work; ive only go
the root notes, anyway, worse comes to worst someone post a correction....
Добавлено: 30.11.2013
Другие материалы по этой песне:
  • Аккорды и текст

Страница создана 27.02.2012
http://primanota.ru/clash/four-horsemen-chords.htm
Привет, Гость.
Предлагаем пройти революционный курс по гитаре.
Подарок от PrimaNota.Ru, забирай!