PrimaNota.ru - самый крупный в мире бесплатный архив песенных текстов, аккордов, табулатур и нот


Clash - Dirty Punk - текст песни, таба, видео

Регистрация Запомнить меня
Войти через:  Facebook Google Twitter Vk Yandex Mail.ru

Clash - Dirty Punk - текст песни, таба, видео

Печатать
Просмотров: 97
The Clash - Dirty Punk (1985)

Mail: degot88@gmail.com
Tuning: Standard

Legend:
x - muted note
^^ - full bend

Start with
e|------------------------------------------------------------------------------------------|
B|------------------------------------------------------------------------------------------|
G|------------------------------------------------------------------------------------------|
D|------------------------------------------------------------------------------------------|
A|--3-3-3-3-3-3-3-3-3-3-3-3-3-3-3-3---6-6-6-6-6-6-6-6-8-8-8-8-8-8-8-8---3-3-3-3-3-3-3-3-3---|
E|--1-1-1-1-1-1-1-1-1-1-1-1-1-1-1-1---4-4-4-4-4-4-4-4-6-6-6-6-6-6-6-6---1-1-1-1-1-1-1-1-1---|

Main riff
e|------------------------------------------------------------------------------------------|
B|------------------------------------------------------------------------------------------|
G|------------------------------------------------------------------------------------------|
D|------------------------------------------------------------------------------------------|
A|--6-6-6-6-6-6-6-6---8-8-8-8-8-8-8-8---3-3-3-3-3-3-3-3-3-3-3-3-3-3-3-3---------------------|
E|--4-4-4-4-4-4-4-4---6-6-6-6-6-6-6-6---1-1-1-1-1-1-1-1-1-1-1-1-1-1-1-1---------------------|

Chorus
e|-----------------------------------------------------------------------|    |-----|
B|-----------------------------------------------------------------------|    |-----|
G|-----------------------------------------------------------------------|    |-----|
D|----------------------------5-5-5-5------------------------------------|    |-----|
A|--5-5-5-5-5-5-5-5-5-5-5-5---3-3-3-3---3-3-3-3-3-3-3-3-3-3-3-3-3-3-3-3--|    |-\10-|
E|--3-3-3-3-3-3-3-3-3-3-3-3-------------1-1-1-1-1-1-1-1-1-1-1-1-1-1-1-1--| x4 |-\8--|

Solo
e|--3-3-4-3-3----------------------------------3-3-3-4-3-3--------------6666666-----88888888---|
B|--x-x-x-6-x-44---4--4--4--4---4--4--4--4-----x-x-x-x-x6x-44---4----6--6666666--8--88888888---|
G|--5-5-5-5-5--6^^-6^^6^^6^^6^^-6^^6^^6^^6^^---5-5-5-5-555--6^^-6^^--8^^(hold)---10^^(hold)----|
D|---------------------------------------------------------------------------------------------|
A|---------------------------------------------------------------------------------------------|
E|---------------------------------------------------------------------------------------------|
Добавлено: 18.02.2016
Другие материалы по этой песне:
  • Аккорды и текст

Страница создана 30.04.2012
http://primanota.ru/clash/dirty-punk-chords.htm
Привет, Гость.
Предлагаем пройти революционный курс по гитаре.
Подарок от PrimaNota.Ru, забирай!