PrimaNota.ru - самый крупный в мире бесплатный архив песенных текстов, аккордов, табулатур и нот


Clapton, Eric - Somewhere Over The Rainbow Live - таба, видео

Регистрация Запомнить меня
Войти через:  Facebook Google Twitter Vk Yandex Mail.ru

Clapton, Eric - Somewhere Over The Rainbow Live - таба, видео

Печатать
Просмотров: 216
Artist - Eric Clapton
Song   - Somewhere Over The Rainbow (Live)


Intro:
e|----0---2-2-0----------------------------0-2-2-0-------------------|
B|----0---2-2-0----------------------------0-2-2-0-------------------|
G|----1---2-2-1----------------------------1-2-2-1-------------------|
D|----2---2-2-2----------2------2------2---2-2-2-2-----------2-4-\6--|
A|----2-------2---2-2-\4---2-\4---2-\4-----2-----2--2-2-h4-----------|
E|--0---------0--------------------------0-------0-------------------|

e|-----------------------2-2-0------------------0--2-2---0---4--2-2--|
B|-----------------------2-2-0------\3-3-2-0-h1-0--2-2---0-4-4--2-2--|
G|--4-4-6----------------2-2-1------\4-4-2------1--2-2---1-4-4--2-2--|
D|--------6-h4-\2---2----2-2-2------------------2--2-2---2-4-4--2-2--|
A|----------------4----------2---------------------------2-4-4--4-4--|
E|--------------------0------0-------------------------0---4-4--2-2--|

e|--------------------------0---4--2-2-----------0--|
B|--2-2---------------------0-4-4--2-2--2-2------0--|
G|--2-2---------------------1-4-4--2-2--2-2------1--|
D|--2-2--------------2------2-4-4--2-2--2-2--0---2--|
A|--2-2-------2-2-p4--------2-4-4--4-4--2-2------2--|
E|--2-2----------------0------4-4--2-2--2-2----0----| end intro.


e|----0----4-----4----4--3-----2-------0--4--3--2--------------0-----|
B|----0----5-----4----4--3-----2--\4---0--4--3--2----\4--------0-----|
G|----1----4-----4----4--3-----2--\4---1--4--3--2----\4--------1-----|
D|----2----6-----4----4--3-----2--\4---2--4--3--2----\4--------2-----|
A|----2-4--4-----6----6--5-----4-------2--4--5--4--------------2-----|
E|--0------4-----4--4-4--3--2--2-----0----4--3--2--------------0-----|
   Some...where over the rainbow;              	    way up    high.

e|----4--3--2----------0--------------4--------2--------\4-----0-----|
B|----4--3--2-------4--0--------------4--------2--------\4-----0-----|
G|----4--3--2-------4--1--------------4--------2--------\4-----1-----|
D|----4--3--2-------4--2--------------4--------2--------\4-----2-----|
A|----4--5--4----------2--------------4--------4---------------2-----|
E|----4--3--2----------0--------------4--------2---------------0-----|
           There's a  place that I   heard of once in a lullaby.   


e|----0----4-----4----4--3-----2-------0--4--3--2--------------0-----|
B|----0----5-----4----4--3-----2--\4---0--4--3--2----\4--------0-----|
G|----1----4-----4----4--3-----2--\4---1--4--3--2----\4--------1-----|
D|----2----6-----4----4--3-----2--\4---2--4--3--2----\4--------2-----|
A|----2-4--4-----6----6--5-----4-------2--4--5--4--------------2-----|
E|--0------4-----4--4-4--3--2--2-----0----4--3--2--------------0-----|
   Some...where over the rainbow;		    skies are blue.


e|--4--3--2----------0--------------4--------2--------\4-----0-------|
B|--4--3--2-------4--0--------------4--------2--------\4-----0-------|
G|--4--3--2-------4--1--------------4--------2--------\4-----1-------|
D|--4--3--2-------4--2--------------4--------2--------\4-----2-------|
A|--4--5--4----------2--------------4--------4---------------2-------|
E|--4--3--2----------0--------------4--------2---------------0-------|
         And the dreams that you   dared to dream, really do  come true.


e|--0---------------------------------6------------------------------|
B|--0---------------------------------8------------------------------|
G|--1---------------------------------6------------------------------|
D|--2---------------------------------8------------------------------|
A|--2---------------------------------6------------------------------|
E|--0---------------------------------6------------------------------|
   Someday I'll wish upon a star and wake up where the clouds are far 

e|--2---------4-----2--2-----0-------------------------------------6-|
B|--4---------4--4--2--4-----0-------------------------------------8-|
G|--2---------4--4--2--2-----1-------------------------------------6-|
D|--4---------4--3--2--4-----2-------------------------------------8-|
A|--2---------6--4--4--2-----2-------------------------------------6-|
E|--2---------4-----2--2-----0-------------------------------------6-|
   behind me 		 Where troubles melt like lemon drops, high above   

			
e|---------------------------2----------2-------------|
B|---------------------------4---4------2-------------|
G|---------------------------2---4------2-------------|
D|---------------------------4---3------2-------------|
A|---------------------------2---4------4-------------|
E|---------------------------2----------2-------------|
   the chimney tops; that's where you'll find me.



e|----0----4-----4----4--3-----2-------0--4--3--2--------------0-----|
B|----0----5-----4----4--3-----2--\4---0--4--3--2----\4--------0-----|
G|----1----4-----4----4--3-----2--\4---1--4--3--2----\4--------1-----|
D|----2----6-----4----4--3-----2--\4---2--4--3--2----\4--------2-----|
A|----2-4--4-----6----6--5-----4-------2--4--5--4--------------2-----|
E|--0------4-----4--4-4--3--2--2-----0----4--3--2--------------0-----|
   Some...where over the rainbow;              	    bluebirds fly.


e|--4--3--2----------0-------------------4--------2----\4-----0------|
B|--4--3--2-------4--0-------------------4--------2----\4-----0------|
G|--4--3--2-------4--1-------------------4--------2----\4-----1------|
D|--4--3--2-------4--2-------------------4--------2----\4-----2------|
A|--4--5--4----------2-------------------4--------4-----------2------|
E|--4--3--2----------0-------------------4--------2-----------0------|
            Birds fly over the rainbow  why, oh  why,          can't I.  
					 
**********************************************************************
                    Repeat transcribtion above.
**********************************************************************

Ending:
e|--0----------------------------------------------------------------|
B|--0--------------------------------------------------2-------------|
G|--1-----------------------------2--------------------2-------2-----|
D|--2-----------------------------2--------------------2-------2-----|
A|--2-----------------------------4--------------------4-------2-----|
E|--0-----------------------------2--------------------2-------2-----|
   If happy little bluebirds fly beyond the rainbow,  why, oh why, can't I.

e|--0----4--2-2-----------------------0----4--2-2--------------------|
B|--0--4-4--2-2--2-2------------------0--4-4--2-2--2-2---------------|
G|--1--4-4--2-2--2-2------------------1--4-4--2-2--2-2---------------|
D|--2--4-4--2-2--2-2------------2-----2--4-4--2-2--2-2------------2--|
A|--2--4-4--4-4--2-2--2--2--\4--------2--4-4--4-4--2-2--2--2--\4-----|
E|--0--4-4--2-2--2-2------------------0--4-4--2-2--2-2---------------|

e|--0----4--2-2-----------------------0----4--2-2--------------------|
B|--0--4-4--2-2--2-2------------------0--4-4--2-2--2-2---------------|
G|--1--4-4--2-2--2-2------------------1--4-4--2-2--2-2---------------|
D|--2--4-4--2-2--2-2------------2-----2--4-4--2-2--2-2------------2--|
A|--2--4-4--4-4--2-2--2--2--\4--------2--4-4--4-4--2-2--2--2--\4-----|
E|--0--4-4--2-2--2-2------------------0--4-4--2-2--2-2---------------|

e|--0--0--|
B|--1--0--|
G|--2--1--|
D|--3--2--|
A|--3--2--|
E|-----0--|
Добавлено: 07.10.2013
Другие материалы по этой песне:
  • Аккорды и текст

Страница создана 07.10.2013
http://primanota.ru/clapton-eric/somewhere-over-the-rainbow-live-chords.htm
Привет, Гость.
Предлагаем пройти революционный курс по гитаре.
Подарок от PrimaNota.Ru, забирай!