PrimaNota.ru - самый крупный в мире бесплатный архив песенных текстов, аккордов, табулатур и нот


Clapton, Eric - The Cream Of Clapton - таба, видео

Регистрация Запомнить меня
Войти через:  Facebook Google Twitter Vk Yandex Mail.ru

Clapton, Eric - The Cream Of Clapton - таба, видео

Печатать
Просмотров: 169
                              The Cream Of Eric Clapton (March 7, 1995)
                      Cream, Eric Clapton, Derek And The Dominos, Blind Faith


261 kbs
____________________________________________________________________________________________________
____________________________________________________________________________________________________
____________________________________________________________________________________________________

All songs were tabbed by Matt Montoya


Song List [(Band/Artist: Composer), year, type of tab (chords, tablature)]:


01. I Feel Free (Cream: Brown, Bruce) 1966                              (Tab)

02. Sunshine Of Your Love (Cream: Brown, Bruce, Clapton) 1967           (Tab)

03. White Room (Cream: Brown, Bruce) 1968                               (Tab)

04. Crossroads (Cream: Johnson) 1968 (Original recording: 1936)         (Tab)

05. Badge (Cream: Clapton, Harrison) 1969                         (Chord/Tab)

06. Presence Of The Lord (Blind Faith: Clapton) 1969              (Chord/Tab) 

07. Blues Power (Eric Clapton: Clapton, Russell) 1970                   (Tab)

08. After Midnight (Eric Clapton: Cale) 1970                            (Tab)

09. Let It Rain (Eric Clapton: Bramlett, Clapton) 1970                  (Tab)

10. Bell Bottom Blues (Derek And The Dominos: Clapton) 1970             (Tab)

11. Layla (Derek And The Dominos/Duane Allman: Clapton, Gordon) 1970    (Tab)

12. I Shot The Sheriff (Eric Clapton: Marley) 1974                      (Tab)

13. Let It Grow (Eric Clapton: Clapton) 1974                      (Chord/Tab)

14. Knockin' On Heaven's Door (Eric Clapton: Dylan) 1982          (Chord/Tab)

15. Hello Old Friend (Eric Clapton: Clapton) 1976                 (Chord/Tab)

16. Cocaine (Eric Clapton: Cale) 1977                                   (Tab)

17. Wonderful Tonight (Eric Clapton: Clapton, Kamen) 1977               (Tab)

18. Promises (Eric Clapton: Feldman, Linn) 1978                   (Chord/Tab)

19. I Can't Stand It (Eric Clapton: Clapton) 1981                 (Chord/Tab)



____________________________________________________________________________________________________

To find a particular song, press Ctrl+F and then type in the song of request

____________________________________________________________________________________________________


Tablature Legend:

/=slide up
\=slide down
b=bend
p=pulloff
h=hammeron
()=optional note
X=muted string
d=downstroke
u=upstroke
m=palm mute
~=shake frequently or use wammy bar

____________________________________________________________________________________________________
____________________________________________________________________________________________________
____________________________________________________________________________________________________


Song: I Feel Free

Band: Cream

Album: Fresh Cream


Intro:      Ba Ba Ba Bo Ba Ba    Ba Ba Ba Bo Ba Ba    
|-----------------------------------------------------|
|----8------------------------------------------------|
|----7------------------------------------------------|
|----6------2--2--2--0--2--2-----2--2--2--0--2--2-----|
|----7------------------------------------------------|
|-----------------------------------------------------|

   Ba Ba Ba Bo Ba Ba    Ba Ba Ba Bo Ba Ba    
|--------------------------------------------|
|--------------------------------------------|
|--------------------------------------------|
|--2--2--2--0--2--2-----2--2--2--0--2--2-----|
|--------------------------------------------|
|--------------------------------------------|

   Ba Ba Ba Bo Ba Ba    Ba Ba Ba Bo Ba Ba    
|--------------------------------------------|
|--------------------------------------------|
|--------------------------------------------|
|--2--2--2--0--2--2-----2--2--2--0--2--2-----|
|--------------------------------------------|
|--------------------------------------------|

   Ba Ba Ba Bo Ba Ba    Ba Ba Ba Bo Ba Ba    
|--------------------------------------------|
|--------------------------------------------|
|--------------------------------------------|
|--2--2--2--0--2--2-----2--2--2--0--2--2-----|
|--------------------------------------------|
|--------------------------------------------|

   Ba Ba Ba Bo Ba Ba    Ba Ba Ba Bo Ba Ba    
|--------------------------------------------|
|--------------------------------------------|
|--------------------------------------------|
|--2--2--2--0--2--2-----2--2--2--0--2--2-----|
|--------------------------------------------|
|--------------------------------------------|


(00:31)
|----------------|
|----------------|
|-4---7---9------|
|-4---7---9------|
|-2---5---7------|
|----------------|


(From "Feel when I dance for you")
|------------------------------------------|------------------------------------------|
|------------------------------------------|------------------------------------------|
|-9---9--9--9---9--9\7--7--7--7--7--7--7---|-9---9--9--9---9--9\7--7--7--7--7--7--7---|
|-9---9--9--9---9--9\7--7--7--7--7--7--7---|-9---9--9--9---9--9\7--7--7--7--7--7--7---|
|-7---7--7--7---7--7\5--5--5--5--5--5--5---|-7---7--7--7---7--7\5--5--5--5--5--5--5---|
|------------------------------------------|------------------------------------------|

(From "We move like the sea")
|------------------------------------------|------------------------------------------|
|------------------------------------------|------------------------------------------|
|-9---9--9--9---9--9\7--7--7--7--7--7--7---|-9---9--9--9---9--9\7--7--7--7--7--7--7---|
|-9---9--9--9---9--9\7--7--7--7--7--7--7---|-9---9--9--9---9--9\7--7--7--7--7--7--7---|
|-7---7--7--7---7--7\5--5--5--5--5--5--5---|-7---7--7--7---7--7\5--5--5--5--5--5--5---|
|------------------------------------------|------------------------------------------|

(From "You, your all I want to love")
|------------------------------------------|------------------------------------------|
|------------------------------------------|------------------------------------------|
|-9---9--9--9---9--9\7--7--7--7--7--7--7---|-9---9--9--9---9--9\7--7--7--7--7--7--7---|
|-9---9--9--9---9--9\7--7--7--7--7--7--7---|-9---9--9--9---9--9\7--7--7--7--7--7--7---|
|-7---7--7--7---7--7\5--5--5--5--5--5--5---|-7---7--7--7---7--7\5--5--5--5--5--5--5---|
|------------------------------------------|------------------------------------------|

(From "I feel free, I feel free, I feel free.")
|-----------------------------------------------------------------------------|
|-----------------------------------------------------------------------------|
|-7---7--7--7---7--7--7---7--7--7--7--7/9---9--9--9---9--9--9---9--9--9--9--9-|
|-7---7--7--7---7--7--7---7--7--7--7--7/9---9--9--9---9--9--9---9--9--9--9--9-|
|-5---5--5--5---5--5--5---5--5--5--5--5/7---7--7--7---7--7--7---7--7--7--7--7-|
|-----------------------------------------------------------------------------|


(From "I walk down the streets...")
|-------------------|
|-------------------|
|-----No Guitar-----|
|-------------------|
|-------------------|
|-------------------|


Guitar Solo:
|-----------------------------------------9-------10p9--------------|
|-10-------10p9----9---12b14-b12--9--------------------12-10---9----|
|---------------11--------------------------------------------------|
|-------------------------------------------------------------------|
|-------------------------------------------------------------------|
|-------------------------------------------------------------------|

|-10-------10p9----9---14b16-b14--------------------------------------|
|---------------12----------------14~--------9b10----9p7---7----------|
|--------------------------------------------------------9---6-9b11-9-|
|---------------------------------------------------------------------|
|---------------------------------------------------------------------|
|---------------------------------------------------------------------|

|----------------------------------|-------------------17b19---19b17-15-------------15h17-15-b-17--|
|-10-------10p9p7-9-------7--------|----17---17-----17------------------17-15-17-------------------|
|---------------------6-9---9-6-9--|-16------------------------------------------------------------|
|----------------------------------|---------------------------------------------------------------|
|----------------------------------|---------------------------------------------------------------|
|----------------------------------|---------------------------------------------------------------|

(From "I walk down the streets...")
|-------------------|
|-------------------|
|-----No Guitar-----|
|-------------------|
|-------------------|
|-------------------|

(From "Dance, floor is like the sea"
|------------------------------------------|------------------------------------------|
|------------------------------------------|------------------------------------------|
|-9---9--9--9---9--9\7--7--7--7--7--7--7---|-9---9--9--9---9--9\7--7--7--7--7--7--7---|
|-9---9--9--9---9--9\7--7--7--7--7--7--7---|-9---9--9--9---9--9\7--7--7--7--7--7--7---|
|-7---7--7--7---7--7\5--5--5--5--5--5--5---|-7---7--7--7---7--7\5--5--5--5--5--5--5---|
|------------------------------------------|------------------------------------------|

(From "Ceiling is the sky")
|------------------------------------------|------------------------------------------|
|------------------------------------------|------------------------------------------|
|-9---9--9--9---9--9\7--7--7--7--7--7--7---|-9---9--9--9---9--9\7--7--7--7--7--7--7---|
|-9---9--9--9---9--9\7--7--7--7--7--7--7---|-9---9--9--9---9--9\7--7--7--7--7--7--7---|
|-7---7--7--7---7--7\5--5--5--5--5--5--5---|-7---7--7--7---7--7\5--5--5--5--5--5--5---|
|------------------------------------------|------------------------------------------|

(From "You're the sun, and as you shine on me")
|------------------------------------------|------------------------------------------|
|------------------------------------------|------------------------------------------|
|-9---9--9--9---9--9\7--7--7--7--7--7--7---|-9---9--9--9---9--9\7--7--7--7--7--7--7---|
|-9---9--9--9---9--9\7--7--7--7--7--7--7---|-9---9--9--9---9--9\7--7--7--7--7--7--7---|
|-7---7--7--7---7--7\5--5--5--5--5--5--5---|-7---7--7--7---7--7\5--5--5--5--5--5--5---|
|------------------------------------------|------------------------------------------|

(From "I feel free, I feel free, I feel free.")
|-----------------------------------------------------------------------------|
|-----------------------------------------------------------------------------|
|-7---7--7--7---7--7--7---7--7--7--7--7/9---9--9--9---9--9--9---9--9--9--9--9-|
|-7---7--7--7---7--7--7---7--7--7--7--7/9---9--9--9---9--9--9---9--9--9--9--9-|
|-5---5--5--5---5--5--5---5--5--5--5--5/7---7--7--7---7--7--7---7--7--7--7--7-|
|-----------------------------------------------------------------------------|


 Fade away with this:
|------------------------------------------|------------------------------------------|
|------------------------------------------|------------------------------------------|
|-9---9--9--9---9--9\7--7--7--7--7--7--7---|-9---9--9--9---9--9\7--7--7--7--7--7--7---|
|-9---9--9--9---9--9\7--7--7--7--7--7--7---|-9---9--9--9---9--9\7--7--7--7--7--7--7---|
|-7---7--7--7---7--7\5--5--5--5--5--5--5---|-7---7--7--7---7--7\5--5--5--5--5--5--5---|
|------------------------------------------|------------------------------------------|


____________________________________________________________________________________________________
____________________________________________________________________________________________________
____________________________________________________________________________________________________


Song: Sunshine Of Your Love

Band: Cream

Album: Disraeli Gears

Intro:
|--------------------------------------------|--------------------------------------------|
|--------------------------------------------|--------------------------------------------|
|--------------------------------------------|--------------------------------------------|
|-12--12--10--12-----------------------------|-12--12--10--12-----------------------------|
|-------------------12--11--10---------------|-------------------12--11--10---------------|
|---------------------------------10--13--10-|---------------------------------10--13--10-|

|--------------------------------------------|--------------------------------------------|
|---------------------------------12---------|---------------------------------12---------|
|-11--11--9---11------------------12--10-----|-11--11--9---11------------------12--10-----|
|-12--12--10--12--------------------------12-|-12--12--10--12-----------------------------|
|-12--12--10--12----12--11--10---------------|-12--12--10--12----12--11--10---------------|
|--------------------------------------------|--------------------------------------------|


(From "It's getting near dark")
|--------------------------------------------|
|---------------------------------12---------|
|-11--11--9---11------------------12--10-----|
|-12--12--10--12--------------------------12-|
|-12--12--10--12----12--11--10---------------|
|--------------------------------------------|

(From "When lights close their tired eyes")
|--------------------------------------------|
|---------------------------------12---------|
|-11--11--9---11------------------12--10-----|
|-12--12--10--12--------------------------12-|
|-12--12--10--12----12--11--10---------------|
|--------------------------------------------|

(From "I'll soon be with you my love")
|--------------------------------------------|
|---------------------------------12---------|
|-11--11--9---11------------------12--10-----|
|-12--12--10--12--------------------------12-|
|-12--12--10--12----12--11--10---------------|
|--------------------------------------------|

(From "To give you my dawn surprise")
|--------------------------------------------|
|---------------------------------12---------|
|-11--11--9---11------------------12--10-----|
|-12--12--10--12--------------------------12-|
|-12--12--10--12----12--11--10---------------|
|--------------------------------------------|

(From "I'll be with you darling soon")
|--------------------------------------------|
|-12--12--10--12-----------------------------|
|-12--12--10--12-----------------------------|
|-12--12--10--12----12--11--10---------------|
|---------------------------------10--13--10-|
|--------------------------------------------|

(From "I'll be with you when the stars start falling")
|--------------------------------------------|
|-12--12--10--12-----------------------------|
|-12--12--10--12-----------------------------|
|-12--12--10--12----12--11--10---------------|
|---------------------------------10--13--10-|
|--------------------------------------------|


|--------------------------------------------|
|--------------------------------------------|
|-11--11--9---11-----------------------------|
|-12--12--10--12-----------------------------|
|-12--12--10--12----12--11--10---------------|
|---------------------------------10--13--10-|

|--------------------------------------------|
|-------------------------------------10-----|
|-11--11--9---11----------------------10-----|
|-12--12--10--12--------------------------12-|
|-12--12--10--12----12--11--10---------------|
|---------------------------------10---------|

(From "I've been waiting so long")
  A              C         G
|--------------------------3--3-|
|--------------------------3--3-|
|-2---2-2--------5----5----4--4-|
|-2---2-2--------5----5----5--5-|
|-0---0-0--------3----3---------|
|-------------------------------|

(From "To be where I'm going")
  A              C         G
|--------------------------3--3-|
|--------------------------3--3-|
|-2---2-2--------5----5----4--4-|
|-2---2-2--------5----5----5--5-|
|-0---0-0--------3----3---------|
|-------------------------------|

(From "In the sunshine of your love")
  A              C         G       A
|--------------------------3--3------------------------------------------|
|--------------------------3--3------------------------------------------|
|-2---2-2--------5----5----4--4----2--2-2--2-2--2-2--2-2--2-2--2-2--2-2--|
|-2---2-2--------5----5----5--5----2--2-2--2-2--2-2--2-2--2-2--2-2--2-2--|
|-0---0-0--------3----3------------0--0-0--0-0--0-0--0-0--0-0--0-0--0-0--|
|------------------------------------------------------------------------|


|--------------------------------------------|
|---------------------------------12---------|
|-11--11--9---11------------------12--10-----|
|-12--12--10--12--------------------------12-|
|-12--12--10--12----12--11--10---------------|
|--------------------------------------------|

(From "I'm with you my love")
|--------------------------------------------|
|---------------------------------12---------|
|-11--11--9---11------------------12--10-----|
|-12--12--10--12--------------------------12-|
|-12--12--10--12----12--11--10---------------|
|--------------------------------------------|

(From "The light's shining through on you")
|--------------------------------------------|
|---------------------------------12---------|
|-11--11--9---11------------------12--10-----|
|-12--12--10--12--------------------------12-|
|-12--12--10--12----12--11--10---------------|
|--------------------------------------------|

(From "Yes, I'm with you my love")
|--------------------------------------------|
|---------------------------------12---------|
|-11--11--9---11------------------12--10-----|
|-12--12--10--12--------------------------12-|
|-12--12--10--12----12--11--10---------------|
|--------------------------------------------|

(From "It's the morning of just we two")
|--------------------------------------------|
|---------------------------------12---------|
|-11--11--9---11------------------12--10-----|
|-12--12--10--12--------------------------12-|
|-12--12--10--12----12--11--10---------------|
|--------------------------------------------|


(From "I'll stay with you darling now")
|--------------------------------------------|
|-12--12--10--12-----------------------------|
|-12--12--10--12-----------------------------|
|-12--12--10--12----12--11--10---------------|
|---------------------------------10--13--10-|
|--------------------------------------------|

(From "I'll stay with you 'till my seed's all dired up")
|--------------------------------------------|
|-12--12--10--12-----------------------------|
|-12--12--10--12-----------------------------|
|-12--12--10--12----12--11--10---------------|
|---------------------------------10--13--10-|
|--------------------------------------------|


|--------------------------------------------|
|---------------------------------12---------|
|-11--11--9---11------------------12--10-----|
|-12--12--10--12--------------------------12-|
|-12--12--10--12----12--11--10---------------|
|--------------------------------------------|

|--------------------------------------------|
|---------------------------------12---------|
|-11--11--9---11------------------12--10-----|
|-12--12--10--12--------------------------12-|
|-12--12--10--12----12--11--10---------------|
|--------------------------------------------|


(From "I've been waiting so long")
  A              C         G
|--------------------------3--3-|
|--------------------------3--3-|
|-2---2-2--------5----5----4--4-|
|-2---2-2--------5----5----5--5-|
|-0---0-0--------3----3---------|
|-------------------------------|

(From "To be where I'm going")
  A              C         G
|--------------------------3--3-|
|--------------------------3--3-|
|-2---2-2--------5----5----4--4-|
|-2---2-2--------5----5----5--5-|
|-0---0-0--------3----3---------|
|-------------------------------|

(From "In the sunshine of your love")
  A              C         G       A
|--------------------------3--3------------------------------------------|
|--------------------------3--3------------------------------------------|
|-2---2-2--------5----5----4--4----2--2-2--2-2--2-2--2-2--2-2--2-2--2-2--|
|-2---2-2--------5----5----5--5----2--2-2--2-2--2-2--2-2--2-2--2-2--2-2--|
|-0---0-0--------3----3------------0--0-0--0-0--0-0--0-0--0-0--0-0--0-0--|
|------------------------------------------------------------------------|


Guitar Solo (02:01)
|--------------------------------------------------------------------------------|
|----------------------------12------------------------------------------8/10----|
|-12b14--12b14-------12--14------14--14--12--14-------9b11--b9--7--9--7--9/11--7-|
|--------------------------------------------------------------------------------|
|--------------------------------------------------------------------------------|
|--------------------------------------------------------------------------------|

|------------------------------------------------------------------------------------------------|
|----------10---------10-------------------------------------------------------------------------|
|-----7-9--9b11b9b11--11b9-9h7p-----12b14---12b14-12b14--11b12-11b12----11-----------------------|
|-7h9----------------------------------------------------------------------12-14b16----12--14b16-|
|-----------------------------------------------------------------------------------14-----------|
|------------------------------------------------------------------------------------------------|

|--------------------------------------------------------------------------------------------------|
|-------------------------------------------------------------/13-------------------------------15-|
|---------------------------------11b12--9b11--7-9---7h9-7----/14---10-----11----------------------|
|-------12h14--16------12h14b16--------------------9-------------------15------12----12--14h16-----|
|-12h14-------------14------------------------------------------------------------14---------------|
|--------------------------------------------------------------------------------------------------|

|-----------------------------------------------------------------10-------------------------------|
|------------------13--------------------------13--------------10-----10---------------------------|
|-10----10-12b14-------14b12--10---12----12b14----12-10--12b14-----------12p10----10---------------|
|----12------------------------------------------------------------------------12----12------10-10-|
|---------------------------------------------------------------------------------------12---12-12-|
|--------------------------------------------------------------------------------------------------|

|-----------------------------10--------------------------------12----10-|
|------------------13----13------10h13--------------------13-------13----|
|----10-12-12b14------14---------------10----12p10-12b14-----14----------|
|-12---------------------------------------------------------------------|
|-12---------------------------------------------------------------------|
|------------------------------------------------------------------------|

|-13--10----10------------------------------------------------------|
|-13-----13-----------------------------13-13-13--------------------|
|---------------14\12-10-12-10--12b14------------12-11--------------|
|-------------------------------------------------------12p10----12-|
|-------------------------------------------------------------12----|
|-------------------------------------------------------------------|


|--------------------------------------------|
|--------------------------------------------|
|--------------------------------------------|
|-12--12--10--12-----------------------------|
|-------------------12--11--10---------------|
|---------------------------------10--13--10-|

|--------------------------------------------|
|---------------------------------12---------|
|---------------------------------12--10-----|
|-12--12--10--12--------------------------12-|
|-------------------12--11--10---------------|
|--------------------------------------------|


(From "I'm with you my love")
|--------------------------------------------|
|---------------------------------12---------|
|-11--11--9---11------------------12--10-----|
|-12--12--10--12--------------------------12-|
|-12--12--10--12----12--11--10---------------|
|--------------------------------------------|

(From "The light's shining through on you")
|--------------------------------------------|
|---------------------------------12---------|
|-11--11--9---11------------------12--10-----|
|-12--12--10--12--------------------------12-|
|-12--12--10--12----12--11--10---------------|
|--------------------------------------------|

(From "Yes, I'm with you my love")
|--------------------------------------------|
|---------------------------------12---------|
|-11--11--9---11------------------12--10-----|
|-12--12--10--12--------------------------12-|
|-12--12--10--12----12--11--10---------------|
|--------------------------------------------|

(From "It's the morning of just we two")
|--------------------------------------------|
|---------------------------------12---------|
|-11--11--9---11------------------12--10-----|
|-12--12--10--12--------------------------12-|
|-12--12--10--12----12--11--10---------------|
|--------------------------------------------|


(From "I'll stay with you darling now")
|--------------------------------------------|
|-12--12--10--12-----------------------------|
|-12--12--10--12-----------------------------|
|-12--12--10--12----12--11--10---------------|
|---------------------------------10--13--10-|
|--------------------------------------------|

(From "I'll stay with you 'till my seed's all dired up")
|--------------------------------------------|
|-12--12--10--12-----------------------------|
|-12--12--10--12-----------------------------|
|-12--12--10--12----12--11--10---------------|
|---------------------------------10--13--10-|
|--------------------------------------------|


(From "I've been waiting so long")
  A              C         G
|--------------------------3--3-|
|--------------------------3--3-|
|-2---2-2--------5----5----4--4-|
|-2---2-2--------5----5----5--5-|
|-0---0-0--------3----3---------|
|-------------------------------|

(From "I've been waiting so long")
  A              C         G
|--------------------------3--3-|
|--------------------------3--3-|
|-2---2-2--------5----5----4--4-|
|-2---2-2--------5----5----5--5-|
|-0---0-0--------3----3---------|
|-------------------------------|

(From "I've been waiting so long")
  A              C         G
|--------------------------3--3-|
|--------------------------3--3-|
|-2---2-2--------5----5----4--4-|
|-2---2-2--------5----5----5--5-|
|-0---0-0--------3----3---------|
|-------------------------------|

(From "To be where I'm going")
  A              C         G
|--------------------------3--3-|
|--------------------------3--3-|
|-2---2-2--------5----5----4--4-|
|-2---2-2--------5----5----5--5-|
|-0---0-0--------3----3---------|
|-------------------------------|

(From "In the sunshine of your love")
  A              C         G       A                              (Fade away)
|--------------------------3--3------------------------------------------------------------------|
|--------------------------3--3------------------------------------------------------------------|
|-2---2-2--------5----5----4--4----2--2-2--2-2--2-2--2-2--2-2--2-2--2-2--2-2--2-2--2-2--2-2--2-2-|
|-2---2-2--------5----5----5--5----2--2-2--2-2--2-2--2-2--2-2--2-2--2-2--2-2--2-2--2-2--2-2--2-2-|
|-0---0-0--------3----3------------0--0-0--0-0--0-0--0-0--0-0--0-0--0-0--0-0--0-0--0-0--0-0--0-0-|
|------------------------------------------------------------------------------------------------|


____________________________________________________________________________________________________
____________________________________________________________________________________________________
____________________________________________________________________________________________________


Song: White Room

Band: Cream

Album: Wheel's Of Fire


Intro:
  Gm        F         Dm       C    Gm        F         Dm       C  
|-10--------8---------5-----------|-10--------8---------5--------------------|
|-11--------10--------6--------8--|-11--------10--------6--------8--------8--|
|-12--------10--------7--------9--|-12--------10--------7--------9--------9--|
|-12--------10--------7--------10-|-12--------10--------7--------10-------10-|
|------------------------------10-|------------------------------10-------10-|
|---------------------------------|------------------------------------------|

(From "In the white room...")
|----------------------------------------|----------------------------------------|
|-----3------------3---------3-----------|-----3------------3---------3-----------|
|-----2------------0---------0-----3---5-|-----2------------0---------0-----3---5-|
|-0--------------------------------3---5-|-0--------------------------------3---5-|
|------------3-3---------2---------1---3-|------------3-3---------2---------1---3-|
|----------------------------------------|----------------------------------------|

(From "Blackroof country...")
|----------------------------------------|----------------------------------------|
|-----3------------3---------3-----------|-----3------------3---------3-----------|
|-----2------------0---------0-----3---5-|-----2------------0---------0-----3---5-|
|-0--------------------------------3---5-|-0--------------------------------3---5-|
|------------3-3---------2---------1---3-|------------3-3---------2---------1---3-|
|----------------------------------------|----------------------------------------|

(From "Silver horses...")
|----------------------------------------|----------------------------------------|
|-----3------------3---------3-----------|-----3------------3---------3-----------|
|-----2------------0---------0-----3---5-|-----2------------0---------0-----3---5-|
|-0--------------------------------3---5-|-0--------------------------------3---5-|
|------------3-3---------2---------1---3-|------------3-3---------2---------1---3-|
|----------------------------------------|----------------------------------------|

(From "Dawnlight smiles...")
|----------------------------------------|----------------------------------------|
|-----3------------3---------3-----------|-----3------------3---------3-----------|
|-----2------------0---------0-----3---5-|-----2------------0---------0-----3---5-|
|-0--------------------------------3---5-|-0--------------------------------3---5-|
|------------3-3---------2---------1---3-|------------3-3---------2---------1---3-|
|----------------------------------------|----------------------------------------|


(From "I wait in this place...) (Wah Pedal)
  C     G     A#    A     C     G     A#    C     D
|-----------------------|-------------------------2-|-------------|
|-1-----3-----3-----2---|-1-----3-----3-----5-----3-|-------------|
|-0-----0-----3-----2---|-0-----0-----3-----5-----2-|-----7-7---7-|
|-2-----0-----3-----2---|-2-----0-----3-----5-----0-|-7h9-----9---|
|-3-----2---------------|-3-----2-------------------|-------------|
|-----------------------|---------------------------|-------------|


(From "You said no strings...")
|----------------------------------------|----------------------------------------|
|-----3------------3---------3-----------|-----3------------3---------3-----------|
|-----2------------0---------0-----3---5-|-----2------------0---------0-----3---5-|
|-0--------------------------------3---5-|-0--------------------------------3---5-|
|------------3-3---------2---------1---3-|------------3-3---------2---------1---3-|
|----------------------------------------|----------------------------------------|

|------------------------------------------------|
|-----/13--13--13--10----------------------------|
|-7--------------------12--10--------------------|
|------------------------------12--10------------|
|--------------------------------------10--8-----|
|---------------------------------------------10-|

(From "Platform ticket...")
|----------------------------------------|----------------------------------------|
|-----3------------3---------3-----------|-----3------------3---------3-----------|
|-----2------------0---------0-----3---5-|-----2------------0---------0-----3---5-|
|-0--------------------------------3---5-|-0--------------------------------3---5-|
|------------3-3---------2---------1---3-|------------3-3---------2---------1---3-|
|----------------------------------------|----------------------------------------|

|----------------------------------8-------|
|-10h8--10--8---10---8---10---10------10-8-|
|------------------------------------------|
|------------------------------------------|
|------------------------------------------|
|------------------------------------------|

(From "I walked into...")
|----------------------------------------|----------------------------------------|
|-----3------------3---------3-----------|-----3------------3---------3-----------|
|-----2------------0---------0-----3---5-|-----2------------0---------0-----3---5-|
|-0--------------------------------3---5-|-0--------------------------------3---5-|
|------------3-3---------2---------1---3-|------------3-3---------2---------1---3-|
|----------------------------------------|----------------------------------------|

|-----------------------------10----------------------------|
|-----------------------10-------13-10-13p10----10----------|
|--------------10----10----------------------12----12-10----|
|-12\--10--12-----12-------------------------------------12-|
|-12\-------------------------------------------------------|
|-----------------------------------------------------------|

(From "As I walked out...")
|----------------------------------------|----------------------------------------|
|-----3------------3---------3-----------|-----3------------3---------3-----------|
|-----2------------0---------0-----3---5-|-----2------------0---------0-----3---5-|
|-0--------------------------------3---5-|-0--------------------------------3---5-|
|------------3-3---------2---------1---3-|------------3-3---------2---------1---3-|
|----------------------------------------|----------------------------------------|

|-----------------------------------10-------------------------------|
|------------------------------10------13-10-13p10----10-------------|
|-10b12--------------10--12p10---------------------12----12-10-------|
|---------12-10-12---------------------------------------------10h12-|
|--------------------------------------------------------------------|
|--------------------------------------------------------------------|


(From "I wait in the cue...")
  C     G     A#    A     C     G     A#    C     D
|-----------------------|-------------------------2-|
|-1-----3-----3-----2---|-1-----3-----3-----5-----3-|
|-0-----0-----3-----2---|-0-----0-----3-----5-----2-|
|-2-----0-----3-----2---|-2-----0-----3-----5-----0-|
|-3-----2---------------|-3-----2-------------------|
|-----------------------|---------------------------|

  Gm        F         Dm       C    Gm        F         Dm       C  
|-10--------8---------5-----------|-10--------8---------5--------------------|
|-11--------10--------6--------8--|-11--------10--------6--------8--------8--|
|-12--------10--------7--------9--|-12--------10--------7--------9--------9--|
|-12--------10--------7--------10-|-12--------10--------7--------10-------10-|
|------------------------------10-|------------------------------10-------10-|
|---------------------------------|------------------------------------------|



1st Guitar Solo (during singing):
|-8------------------------------------------------------14----14----14----14----14--12-|
|----10--8------------10---10---8-------------------------------------------------------|
|-----------10p7-------------------10--7----7--7---/14------14----14----14----14--------|
|----------------10----------------------10---------------------------------------------|
|---------------------------------------------------------------------------------------|
|---------------------------------------------------------------------------------------|

|------15-15----15-17--14------15--14--15--14-------------10-10---10-10-/17--------|
|-/17--------17--------------------------------15-----/12-------------------15-15--|
|----------------------------------------------------------------------------------|
|----------------------------------------------------------------------------------|
|----------------------------------------------------------------------------------|
|----------------------------------------------------------------------------------|

|--------------------17--------------------------------------------------------------|
|-17b19b17b19b17-b19-----19b17-15-15----15p18----15p18----15p18----15p18----15p18----|
|------------------------------------14-------17-------17-------17-------17-------17-|
|------------------------------------------------------------------------------------|
|------------------------------------------------------------------------------------|
|------------------------------------------------------------------------------------|

|-------------------------------------------------------------------------------------------------|
|-15p18----15p18----15p18----15p18------15-15---------15-15---------15-15-------15-15-------15-15-|
|-------17-------17-------17-------/17----------16/17---------16/17-------16/17-------16/17-------|
|-------------------------------------------------------------------------------------------------|
|-------------------------------------------------------------------------------------------------|
|-------------------------------------------------------------------------------------------------|

|--------------------------------19b17-----17------------------------------17-------------------|
|-------15---19-15-------15------------18-----18---15----15-15-15---17b19-----19b17-15-17----15-|
|-16/17------------16-14-----14-----------------------16----------------------------------16----|
|-----------------------------------------------------------------------------------------------|
|-----------------------------------------------------------------------------------------------|
|-----------------------------------------------------------------------------------------------|


(From "Asleep in this place..."
  C     G     A#    A     C     G     A#    C     D
|-----------------------|-------------------------2-|
|-1-----3-----3-----2---|-1-----3-----3-----5-----3-|
|-0-----0-----3-----2---|-0-----0-----3-----5-----2-|
|-2-----0-----3-----2---|-2-----0-----3-----5-----0-|
|-3-----2---------------|-3-----2-------------------|
|-----------------------|---------------------------|

  Gm        F         Dm       C    Gm        F         Dm       C  
|-10--------8---------5-----------|-10--------8---------5------------------------------|
|-11--------10--------6--------8--|-11--------10--------6--------8--------8-(feedback)-|
|-12--------10--------7--------9--|-12--------10--------7--------9--------9------------|
|-12--------10--------7--------10-|-12--------10--------7--------10-------10-----------|
|------------------------------10-|------------------------------10-------10-----------|
|---------------------------------|----------------------------------------------------|

2nd Outro Guitar Solo (04:00):
|------10-----------------10-----------------10----------------------------------------------------|
|-10-------13-----------------13-----------------10------------------------------------------------|
|--------------12b14--------------12b14--------------12b14b12--10--12------10----12-10----10-12-10-|
|----------------------------------------------------------------------12--------------12----------|
|--------------------------------------------------------------------------------------------------|
|--------------------------------------------------------------------------------------------------|

|----------------------------------------------------------------------13-------13-------13-|
|-----------13--13b15--13b15----13-10----------------------10----13h15----13h15----13h15----|
|-12p10-------------------------------12b14-10-12----10h12----------------------------------|
|-------12----------------------------------------12----------------------------------------|
|-------------------------------------------------------------------------------------------|
|-------------------------------------------------------------------------------------------|

|-------13-------13-------13--------13-------13-------13-------------------------------------10----|
|-13h15----13h15----13h15-----13h15----13h15----13h15-------------------------------------------13-|
|--------------------------------------------------------14p12\10------------12p10-12--12b14-------|
|-----------------------------------------------------------------12-10-12-------------------------|
|--------------------------------------------------------------------------------------------------|
|--------------------------------------------------------------------------------------------------|

|-------------------------------------------------------------------------------------------|
|-10----------------------------------------------------------------------------------------|
|----12---10h12p10-----10h12p10-----10h12p10-----10---10---------------10----12p10----------|
|------------------12-----------12-----------12----------12-10---10-12----12-------12-10-12-|
|-------------------------------------------------------------------------------------------|
|-------------------------------------------------------------------------------------------|

|--------------------------------10--------------------------10----------------------------|
|-13-13--10-13-10--13p10----13--------10-13p10----10----13-------13p10---------------------|
|------------------------12--------------------12----12----------------12p10-12---12p10----|
|---------------------------------------------------------------------------------------12-|
|------------------------------------------------------------------------------------------|
|------------------------------------------------------------------------------------------|

|--------------------------------------------------------------------------------------------------|
|-12------------10-13-------------------------10-----------------10-------------------13----13--13-|
|------12b14-----------12b14--12--10------12-----12-10-----10-12----12p10----10-12p10-12b14-14--14-|
|-------------------------------------12----------------12----------------12-----------------------|
|--------------------------------------------------------------------------------------------------|
|--------------------------------------------------------------------------------------------------|

|--13--13----------------------10-13p10-----------------------------------------------|
|-----------13h15-15-----10-13----------13-10-----------------------------------------|
|---------------------------------------------12-10-12p10------10----12p10------------|
|---------------------------------------------------------12------12-------12p10-12---|
|-------------------------------------------------------------------------------------|
|-------------------------------------------------------------------------------------|

|----10-----------------------13--10h13p10--------------------10----10-----------------------------|
|-13-----13b15--15b13--13b15---------------13--13b15---15b13-----------13-10-----------------------|
|----------------------------------------------------------------------------12p10----10-----------|
|----------------------------------------------------------------------------------12-----12-10-12-|
|--------------------------------------------------------------------------------------------------|
|--------------------------------------------------------------------------------------------------|

|-------------------------------------------------------------------|
|-------------------------------------------------------------------|
|-10--12p10--12b14--14b16--12b14--14b16--12b14--14b16--12b14--14b16-|
|-------------------------------------------------------------------|
|-------------------------------------------------------------------|
|-------------------------------------------------------------------|
                                         (fade away)


____________________________________________________________________________________________________
____________________________________________________________________________________________________
____________________________________________________________________________________________________


Song: Crossroads

Band: Cream (originally by Robert Johnson)

Album: Wheel's Of Fire


Intro:
|--------------------------------------------------------------------------------------|
|-------------------------------------------------2--0--2---------------2--0--2--------|
|-----2--0--2--0-2-0--------2--0--2--0-2-0--------2--0--2--0-2-0--------2--0--2--0-2-0-|
|--------------------------------------------------------------------------------------|
|-0-------------------3--0------------------3--0------------------3--0-----------------|
|--------------------------------------------------------------------------------------|

  D7
|------------2----------2-2----2-------------------------------------------------|
|-----1-1-------1----------------1-------------------------------2---------------|
|---2------2----------2------2-------------2--0--2--0-2-0--------2--0--2--0-2-0--|
|-0-----------------0------------------------------------------------------------|
|--------------------------------------0-------------------3--0------------------|
|--------------------------------------------------------------------------------|

|------------------------------------------------------5-p3p0--------------------------|
|-----------------------------2----3p2---2--2------2h5--------3\1--1h3------------2----|
|---------------------0-2-2------2-----2------2---------------------------2p0-2--------|
|---------2-2-------2---------------------------------------------------------------2--|
|-3-----2-2-2--------------------------------------------------------------------------|
|----0---------------------------------------------------------------------------------|

(From "I went down to the crossroads...")
|-------------------------------------------------------------------------------|
|-------------------------------------------------------------------------------|
|-----------------2-2-4---2-2-4-------2--0--2--0-2-0--------2--0--2--0-2-0------|
|-2-2-4---2-2-4---0-0-0---0-0-0-------------------------------------------------|
|-0-0-0---0-0-0--------------------0------------------3-0------------------3-0--|
|-------------------------------------------------------------------------------|

(From "Down to the crossroads...")
|-------------------------------------------------------------------------------|
|-------------------------------------------------------------------------------|
|-2-2-4---2-2-4---2-2-4---2-2-4-------2--0--2--0-2-0--------2--0--2--0-2-0------|
|-0-0-0---0-0-0---0-0-0---0-0-0-------------------------------------------------|
|----------------------------------0------------------3-0------------------3-0--|
|-------------------------------------------------------------------------------|

(From "Asked the good lord for mercy...")
|-----------------------------------------------------------|
|-----------------------------------------------------------|
|------------------------2--0--2--0-2-0------2--0--2--0-2-0-|
|-----------------------------------------------------------|
|-2-2-4--2----4--4----0------------------3-0----------------|
|-0-0-0--0----2--4------------------------------------------|


(From "I went down to the crossroads...")
|-------------------------------------------------------------------------------|
|-------------------------------------------------------------------------------|
|-----------------2-2-4---2-2-4-------2--0--2--0-2-0--------2--0--2--0-2-0------|
|-2-2-4---2-2-4---0-0-0---0-0-0-------------------------------------------------|
|-0-0-0---0-0-0--------------------0------------------3-0------------------3-0--|
|-------------------------------------------------------------------------------|

(From "Down to the crossroads...")
|-------------------------------------------------------------------------------|
|-------------------------------------------------------------------------------|
|-2-2-4---2-2-4---2-2-4---2-2-4-------2--0--2--0-2-0--------2--0--2--0-2-0------|
|-0-0-0---0-0-0---0-0-0---0-0-0-------------------------------------------------|
|----------------------------------0------------------3-0------------------3-0--|
|-------------------------------------------------------------------------------|

(From "Nobody's stopping on me...")
|-----------------------------------------------------------|
|-----------------------------------------------------------|
|------------------------2--0--2--0-2-0------2--0--2--0-2-0-|
|-----------------------------------------------------------|
|-2-2-4--2----4--4----0------------------3-0----------------|
|-0-0-0--0----2--4------------------------------------------|


(From "Well I'm goin' down to Rosedale...")
|-------------------------------------------------------------------------------|
|-------------------------------------------------------------------------------|
|-----------------2-2-4---2-2-4-------2--0--2--0-2-0--------2--0--2--0-2-0------|
|-2-2-4---2-2-4---0-0-0---0-0-0-------------------------------------------------|
|-0-0-0---0-0-0--------------------0------------------3-0------------------3-0--|
|-------------------------------------------------------------------------------|

(From "Goin' down to Rosedale...")
|-------------------------------------------------------------------------------|
|-------------------------------------------------------------------------------|
|-2-2-4---2-2-4---2-2-4---2-2-4-------2--0--2--0-2-0--------2--0--2--0-2-0------|
|-0-0-0---0-0-0---0-0-0---0-0-0-------------------------------------------------|
|----------------------------------0------------------3-0------------------3-0--|
|-------------------------------------------------------------------------------|

(From "You can still bare a house baby...")
|-----------------------------------------------------------|
|-----------------------------------------------------------|
|------------------------2--0--2--0-2-0------2--0--2--0-2-0-|
|-----------------------------------------------------------|
|-2-2-4--2----4--4----0------------------3-0----------------|
|-0-0-0--0----2--4------------------------------------------|


1st Solo (01:27):
|------------------------------------------------5---5---5---------|
|----------------------------------------2---5h7---7-5-7-5-5---5---|
|-----2-2----2----2----4b6-------2---2h4-------------------7-5h6---|
|-2h4-----4-----4----4-------2h4---4-----------------------------7-|
|------------------------------------------------------------------|
|------------------------------------------------------------------|

|-----------------------5-----------------------------------|
|-------------------------8-5------------------5-8----------|
|---------5--7p5----7b9-------5h7--5h7p5---5-7-----5--------|
|-----5-7--------7-----------------------7------------7p5-7-|
|-5-7-------------------------------------------------------|
|-----------------------------------------------------------|

|--------------8-10------------8-------8----------------------------------|
|-------10-10-------10---8h10----8h10---------------------5---------------|
|-----9-----------------------------------9\7--5--7p5---6---7-6-----------|
|-/11-------------------------------------------------7---------7---------|
|-----------------------------------------------------------------7-5-----|
|---------------------------------------------------------------------7-5-|

|-----5--------------------------|
|---5---8p5---5------------------|
|-6---------7---7p5----------6---|
|-------------------7--7p5-5-----|
|------------------------------7-|
|--------------------------------|

|-9---------8--10-10b12-8-------8-------------------------------------8-|
|----10-------------------10-10---------8-8-8----------------8-8-8-10---|
|-----------------------------------7h9-------7-5--------7h9------------|
|-------------------------------------------------7p5-7-----------------|
|-----------------------------------------------------------------------|
|-----------------------------------------------------------------------|

|------------------------------------------------------------|
|---15b17-15b17-15b17-15b17-13-15-----13---17-b-15-----------|
|---------------------------------14----------------14p12-14-|
|------------------------------------------------------------|
|------------------------------------------------------------|
|------------------------------------------------------------|

|-------------------------------------------------------------------------|
|-----8-8-8---------------5------5-5---5-5-5-7p5---5------5---5-7b9-7b9-5-|
|-7h9-------7-5-7p5---5-7----5h7-----7-----------7----5h7---7-------------|
|-------------------7-----------------------------------------------------|
|-------------------------------------------------------------------------|
|-------------------------------------------------------------------------|

|-----------------|
|-----------------|
|-----0h2-2p0-----|
|-0h2---------2-0-|
|-----------------|
|-----------------|
End of solo


(From "Goin' down to Rosedale...")
|-------------------------------------------------------------------------------|
|-------------------------------------------------------------------------------|
|-----------------2-2-4---2-2-4-------2--0--2--0-2-0--------2--0--2--0-2-0------|
|-2-2-4---2-2-4---0-0-0---0-0-0-------------------------------------------------|
|-0-0-0---0-0-0--------------------0------------------3-0------------------3-0--|
|-------------------------------------------------------------------------------|

(From "Goin' down to Rosedale...")
|-------------------------------------------------------------------------------|
|-------------------------------------------------------------------------------|
|-2-2-4---2-2-4---2-2-4---2-2-4-------2--0--2--0-2-0--------2--0--2--0-2-0------|
|-0-0-0---0-0-0---0-0-0---0-0-0-------------------------------------------------|
|----------------------------------0------------------3-0------------------3-0--|
|-------------------------------------------------------------------------------|

(From "You can still bare a house baby...")
|-----------------------------------------------------------|
|-----------------------------------------------------------|
|------------------------2--0--2--0-2-0------2--0--2--0-2-0-|
|-----------------------------------------------------------|
|-2-2-4--2----4--4----0------------------3-0----------------|
|-0-0-0--0----2--4------------------------------------------|


2nd Guitar Solo (02:32):
|-----------------------------------------15----15----------15----15----|
|-/15--17-17-17-17--/17--17-17-17-17--/17----17----17---/17----17----17-|
|-----------------------------------------------------------------------|
|-----------------------------------------------------------------------|
|-----------------------------------------------------------------------|
|-----------------------------------------------------------------------|

|-15b17---17-15-12-------------------12-17-15p12-----------|
|------------------15-13-15----13-15-------------15-13-----|
|---------------------------14--------------------------14-|
|----------------------------------------------------------|
|----------------------------------------------------------|
|----------------------------------------------------------|

|-20b22-20-17h20p17----17------------17----------------------------------|
|-------------------19-----19-20b22-----20----------------------17-------|
|------------------------------------------19b21-17-19----17-19----19-17-|
|------------------------------------------------------19----------------|
|------------------------------------------------------------------------|
|------------------------------------------------------------------------|

|----------------------------------|
|----------------------------------|
|-17-----17-17--17-17-------17-17--|
|-----19-17h19--19----19-17--------|
|----------------------------------|
|----------------------------------|

|---------------------------------------------------|
|---------------------------------------------------|
|-17-17-----17----17-17-17----17----17-----------17-|
|-17h19--19----19----17h19-19----19----17-17--17----|
|--------------------------------------17h19--19----|
|---------------------------------------------------|

|---------------------------------------|
|------------------------------17----17-|
|----17-x-17-19-17b18----------19b21----|
|-17h19-x-19----------19p17h19----------|
|---------------------------------------|
|---------------------------------------|

|------------------------------------15-----------------------|
|-/17--17-17-17-17--/15--17-17-17-17----17-15h17-13h15-13-----|
|----------------------------------------------------------14-|
|-------------------------------------------------------------|
|-------------------------------------------------------------|
|-------------------------------------------------------------|

|-15b17----------------------------12-15-17-17--17-15-15b17-17-|
|-------13-15-13----------13-13--------------------------------|
|----------------14p12----12-12--------------------------------|
|----------------------14-------14-----------------------------|
|--------------------------------------------------------------|
|--------------------------------------------------------------|

|-17-15-17p15----20b22-20--17----17-17---17-------------------------|
|-------------17--------------20------------20-17-20----------------|
|----------------------------------------------------19b21-17-19----|
|----------------------------------------------------------------19-|
|-------------------------------------------------------------------|
|-------------------------------------------------------------------|

|----------------------------------------------------|
|-17b19b17-15-17-15-------------17-19----------------|
|-------------------17h19p17----17-19-------17-19----|
|----------------------------19-------19-19-------19-|
|----------------------------------------------------|
|----------------------------------------------------|

|-----------------------------------------------|
|-----17-----17-----17--------------------------|
|-19-----18-----18--------------------17--17----|
|----------------------19b17----17-19--------19-|
|----------------------------19-----------------|
|-----------------------------------------------|

|-15p12----15p12----15p12----15p12----15b17-17-15-12-15p12----12-------------------|
|-------15-------15-------15-------15----------------------15----15-13-15p13----13-|
|----------------------------------------------------------------------------14----|
|----------------------------------------------------------------------------------|
|----------------------------------------------------------------------------------|
|----------------------------------------------------------------------------------|

|-----------------------------------------------|
|-13--13--13--13--13-13-13-13-13-13-13-13-13-13-|
|-12--14--12--14--12-14-12-14-12-14-12-14-12-14-|
|-----------------------------------------------|
|-----------------------------------------------|
|-----------------------------------------------|

|-------------------------------------------------------------------|
|-17--17--17--17--17--17--17--17-17-17-17---20---20---20---20-------|
|-17--19--17--19--17--19--17--19-17-19-17-19---19---19---19---19-17-|
|-------------------------------------------------------------------|
|-------------------------------------------------------------------|
|-------------------------------------------------------------------|

|----------------------------------------------------|
|---------------------------20p17-----20p17----20b22-|
|-17-----17-17-17-----17-17-------19--------19-------|
|-17h19--------17h19---------------------------------|
|----------------------------------------------------|
|----------------------------------------------------|

|-17-------------17-------------17--|
|----20-17-20b22----20-17-20b22-----|
|-----------------------------------|
|-----------------------------------|
|-----------------------------------|
|-----------------------------------|

|-------------17-----------------------------------------|
|-20-17-20b22----20-17-----------------------------------|
|-----------------------------19b21b19--17-----19--17b18-|
|------------------------------------------19-(19)-------|
|--------------------------------------------------------|
|--------------------------------------------------------|

|-------------------17-------------------------|
|----------------17----20p17----17-------------|
|----------17h18-------------19----17h19p17b18-|
|-19p17-19-------------------------------------|
|----------------------------------------------|
|----------------------------------------------|

|----19b21---19b21b19-17-19------17-----17-17-17-17----19b21--|
|---------------------------19-------19-------------18--------|
|-------------------------------------------------------------|
|-19----------------------------------------------------------|
|-------------------------------------------------------------|
|-------------------------------------------------------------|

|----20b22--20-17h20p17----17-17-|
|-17--------------------20-------|
|--------------------------------|
|--------------------------------|
|--------------------------------|
|--------------------------------|

|--------17------------------------------------|
|-20b22-----20-17------------------------17----|
|-----------------19b21b19-17-19p17----18------|
|------------------------------------19--------|
|-------------------------------------------19-|
|----------------------------------------------|


(From "You can Run, you can run...")
|-------------------------------------------------------------------------------|
|-------------------------------------------------------------------------------|
|-----------------2-2-4---2-2-4-------2--0--2--0-2-0--------2--0--2--0-2-0------|
|-2-2-4---2-2-4---0-0-0---0-0-0-------------------------------------------------|
|-0-0-0---0-0-0--------------------0------------------3-0------------------3-0--|
|-------------------------------------------------------------------------------|

(From "Run, you can run...")
|-------------------------------------------------------------------------------|
|-------------------------------------------------------------------------------|
|-2-2-4---2-2-4---2-2-4---2-2-4-------2--0--2--0-2-0--------2--0--2--0-2-0------|
|-0-0-0---0-0-0---0-0-0---0-0-0-------------------------------------------------|
|----------------------------------0------------------3-0------------------3-0--|
|-------------------------------------------------------------------------------|


Outro:
(From "And I'm standing at the crossroads, believe I'm sinking down")
|----------------|----------------------------------------0---------5---3-5p3--------------------|
|----------------|----------------------------------------2----2--5-----------5-3\1-3------------|
|----------------|-2p0-2p0-----------0--------------------2---------------------------2----2---2-|
|----------------|---------2---0h2h4-----0h2p0------------2--------------------------------2---2-|
|-2-2-4--2----4--|-----------------------------3---0------0--------------------------------0---0-|
|-0-0-0--0----2--|-------------------------------------------------------------------------------|


____________________________________________________________________________________________________
____________________________________________________________________________________________________
____________________________________________________________________________________________________


Song: Badge

Band: Cream

Album: Goodbye


Intro (Guitar I is really the bass):

 Guitar I
|------------------------|------------------------|
|------------------------|------------------------|
|------------------------|------------------------|
|--------2---------------|--------2---------------|
|-0---3-----3-/5-5-5-5-5-|-0---3-----3-/5-5-5-5-5-|
|------------------------|------------------------|
|                                                 |
|                                                 |
|Guitar II                                        |
|------------------------|------------------------|
|-x--x--x--x--x--x--x--x-|-x--x--x--x--x--x--x--x-|
|-x--x--x--x--x--x--x--x-|-x--x--x--x--x--x--x--x-|
|-x--x--x--x--x--x--x--x-|-x--x--x--x--x--x--x--x-|
|-x--x--x--x--x--x--x--x-|-x--x--x--x--x--x--x--x-|
|------------------------|------------------------|


(Tab synchronizes with lyrics)
Am                       G                          Em
  Thinkin' 'bout the the times that you drove in my car

Am                G                    Em
  Thinkin' that I might have drove you too far

Cmaj7                        Em                        Bm
  And I'm thinkin' 'bout the love that you laid on the table
|-----------------------------------------------------------------7-------------------|
|-----------------------------------------------------------------8-------------------|
|-----------------------------------------------------------------9-------------------|
|-----------------------------------------------------------------10------------------|
|-------------------------------------------------------------------------------------|
|----------------------------------------------------------------------------0-3-4-5--|
                                                                 Cmaj7

Am                G                    Em
  Told you not to wander 'round in the dark

Am                   G                          Em
  Told you 'bout the swans that may live in the park

Cmaj7                    Em                       Bm
  And I told you 'bout a kid, now he's married to Maybell
|--------------------------------------------------------7----------------7----------|
|--------------------------------------------------------7--7--------7----8----------|
|------------------------------------------------------7----7h9p7----7----9----------|
|----------------------------------------------------9------------9----9--10---------|
|------------------------------------------------------------------------------------|
|------------------------------------------------------------------------------------|



|--------------------------------------|--------------------------------------|
|-----------------0------0---0-----3---|-----------------0------0---0-----3---|
|-------2------0-------0---------2---2-|-------2------0-------0---------2---2-|
|-0--4-------------------------0-------|-0--4-------------------------0-------|
|----------3---------2-----------------|----------3---------2-----------------|
|--------------------------3-----------|--------------------------3-----------|

D       Cmaj7             G         D         
  Yes I told you that the life goes up and down

D           Cmaj7          G           D
  Don't you notice how the wheel goes 'round

D         Cmaj7           G       D
  And you better pick yourself up off the ground

  Cmaj7               G       D
Before they bring the curtain down

D       Cmaj7               G       D
 Yes, before they bring the curtain down


Guitar Solo:
|---------------10--10--------------------10-------------------------10------13b12--10-|
|-15b13--15b13-------------13--10---------------------------------------10-------------|
|----------------------------------12b14------14b12-10---------10h11-------------------|
|----------------------------------------------------------12--------------------------|
|--------------------------------------------------------------------------------------|
|--------------------------------------------------------------------------------------|

|-----13b15----15--14--15--14----10--------14p12p10-12---10-12--10-------12b14---10h12-10-|
|-12---------------------------------10------------------------------10-------------------|
|-----------------------------------------------------------------------------------------|
|-----------------------------------------------------------------------------------------|
|-----------------------------------------------------------------------------------------|
|-----------------------------------------------------------------------------------------|

|---------------17b15-14------15b17-15b17-15b17-15b17-15b17-15b17--17b15-14-----|
|-------15-15--------------15-----------------------------------------------15\-|
|-14h16-------------------------------------------------------------------------|
|-------------------------------------------------------------------------------|
|-------------------------------------------------------------------------------|
|-------------------------------------------------------------------------------|

|---------------17--------------19b17-------------------------------------------------------|
|-----15--17b19-----19b17-15-----------19b17-15----15-------15-15------15-15---15-----17b19-|
|-/16-------------------------------------------16-------16---------16------------16--------|
|-------------------------------------------------------------------------------------------|
|-------------------------------------------------------------------------------------------|
|-------------------------------------------------------------------------------------------|

|-14b15b14b15-14-15-14-15-----------------------------------------10-------10----------------------|
|--------------------------15h17p15-----10--13p10-----------10h12----10h12----10-------------------|
|-----------------------------------16\------------12-10--------------------------10-12-10---------|
|-------------------------------------------------------12--------------------------------12-10----|
|-----------------------------------------------------------------------------------------------12-|
|--------------------------------------------------------------------------------------------------|


Am                    G                          Em
  I'm talkin' 'bout a girl that looks quite like you
|--------------------------------------------------------12-------12-12----14----14-15-------------|
|--------------------------------------------------------------------------------------------------|
|--------------------------------------------------14b16----14b16-------16----16-------16p14----14-|
|--------------------------------------------------------------------------------------------------|
|--------------------------------------------------------------------------------------------------|
|--------------------------------------------------------------------------------------------------|

Am                    G                   Em
  She didn't have the time to wait in the cue
|----------------------------------------------12-b-10-7-----------------------------|
|---------------------------------------------------------12-b-10-8------------------|
|-------------------------------------------------------------------9-p7-------------|
|------------------------------------------------------------------------9p7------10-|
|----------------------------------------------------------------------------10------|
|------------------------------------------------------------------------------------|

Cmaj7                Em                          Bm
  She cried away her life sense she fell off the cradle
|-------------------------------------------------------------10---12---10---7--|
|--------------------------------------------------------7/10-10---12---10---8--|
|----------------------------------------------------------------------------9--|
|----------------------------------------------------------------------------10-|
|-------------------------------------------------------------------------------|


____________________________________________________________________________________________________
____________________________________________________________________________________________________
____________________________________________________________________________________________________


Song: Presence Of The Lord

Band: Blind Faith

Album: Blind Faith


Intro:
  C    F    Em   Dm   C    F    Em   Dm 
|-0----1----0----1--|-0----1----0----1--|
|-1----1----0----3--|-1----1----0----3--|
|-0----2----0----2--|-0----2----0----2--|
|-2----3----2----0--|-2----3----2----0--|
|-3----3----2----0--|-3----3----2----0--|
|------1----0-------|------1----0-------|

  C    F    Em   Dm   C    F    Em   Dm 
|-0----1----0----1--|-0----1----0----1--|
|-1----1----0----3--|-1----1----0----3--|
|-0----2----0----2--|-0----2----0----2--|
|-2----3----2----0--|-2----3----2----0--|
|-3----3----2----0--|-3----3----2----0--|
|------1----0-------|------1----0-------|

C        G               Am
  I have finally found a way to live
F                           C   F   Em   Dm
  Just like I never could before.
C   G                     Am
  I know that I don't have much to give,
D7               G7       Em  G   Am
  But I can open any door.

Am                  F      Em   G   Am
Everybody knows the secret,
Am                  D
Everybody knows the score, yeah yeah yeah yeah.

C        G               Am
  I have finally found a way to live
F        G            C
  In the color of the Lord.

  C    F    Em   Dm   C    F    Em   Dm 
|-0----1----0----1--|-0----1----0----1--|
|-1----1----0----3--|-1----1----0----3--|
|-0----2----0----2--|-0----2----0----2--|
|-2----3----2----0--|-2----3----2----0--|
|-3----3----2----0--|-3----3----2----0--|
|------1----0-------|------1----0-------|

C        G               Am
  I have finally found a place to live
F                           C   F   Em   Dm
  Just like I never could before.
C   G                     Am
  I know that I don't have much to give,
D7               G7       Em  G   Am
  But I can open any door.

Am                  F      Em   G   Am
Everybody knows the secret,
Am                  D
Everybody knows the score.

C        G               Am
  I have finally found a way to live
F        G            C
  In the presence of the Lord.
F        G            C
  In the presence of the Lord.

Guitar Solo (Wah-Pedal):
|--------------------------------|-------------------------------------|
|--------------------------------|----------------------------------10-|
|-------------------------5------|-------------------------5h7--7/9----|
|-------------------5h7-------7\-|-------------------5h7---------------|
|-------3h5---5h7----------------|-------3h5---5h7---------------------|
|-3h5----------------------------|-3h5---------------------------------|

|-12p15-------12-------12-------12-------12-------12-------12-------12-12------------|
|-------15b17----17b15----17b15----17b15----17b15----17b15----17b15-------15---------|
|------------------------------------------------------------------------------14-14-|
|------------------------------------------------------------------------------------|
|------------------------------------------------------------------------------------|
|------------------------------------------------------------------------------------|

|--------------------------------------------------------------------------|
|--------------------------------------------------------------------------|
|-12h14-14-14-14p12-12-12---------------------------9-12----12h14-14-14-14-|
|-------------------------14-10------------10-10-12------------------------|
|-------------------------------12---10h12---------------------------------|
|--------------------------------------------------------------------------|

|--------------------------------------------------------------------------------------------------|
|--------------------------------------------------------------------------------------------------|
|-14p12----14p12----14p12----14p12----14p12----14p12----14p12----14p12-----------------------------|
|-------14-------14-------14-------14-------14-------14-------14-------14-12----10h12p10----10-----|
|----------------------------------------------------------------------------------------12----12\-|
|--------------------------------------------------------------------------------------------------|

|-------10----10---------------------------------------10-----------------------------------------|
|----------------13---------------------------13b15-------13-10-----------------------------------|
|-/11------11-------12b14b12-11----------11---------------------10-12p10--------------------------|
|-------------------------------12---12----------------------------------12-----------------------|
|---------------------------------------------------------------------------10---8--10p8----8-----|
|----------------------------------------------------------------------------------------10---10\-|

|-----12----------12----------------------------------12----15b17-15-12h15p12----12-------|
|----------15b17-----15-12-------------------------------12-------------------15----15b17-|
|-/13----------------------14b16-14-12h14p12-------13-------------------------------------|
|--------------------------------------------14-------------------------------------------|
|-----------------------------------------------------------------------------------------|
|-----------------------------------------------------------------------------------------|

|-----------------------10---10----10---------8------8------6------6----------3-----3---|
|-15-12-15p12-------------------13---------------11------------9-----9-----------6------|
|-------------14---11--------------------/9---------------7----------------4------------|
|---------------------------------------------------------------------------------------|
|---------------------------------------------------------------------------------------|
|---------------------------------------------------------------------------------------|

|--------12--------10--------8-------------15----15----------------------------------------|
|----------------------------------15b17------17----17-13----13----15b17-------------------|
|-/12-------12--10----10---9------------------------------14-------------------------------|
|------------------------------------------------------------------------------------------|
|------------------------------------------------------------------------------------------|
|------------------------------------------------------------------------------------------|



        C        G               Am
(From  "  I have finally found a way to live")
|---------------------------------------------|
|-17b15--13--15--13-13-------13--17b15--13-13-|
|---------------------------------------------|
|---------------------------------------------|
|---------------------------------------------|
|---------------------------------------------|

       F                           C   F   Em   Dm
(From "  Just like I never could before.")
|------15---15h17--15------15------------------|
|-/17------------------/17----17---/13--13--13-|
|----------------------------------------------|
|----------------------------------------------|
|----------------------------------------------|
|----------------------------------------------|

C   G                     Am
  I know that I don't have much to give,
D7               G7       Em  G   Am
  But I can open any door.

       Am                  F      Em   G   Am
(From "Everybody knows the secret,")
|-20b22----17--17h20--17------------|
|-------------------------20--20b22-|
|-----------------------------------|
|-----------------------------------|
|-----------------------------------|
|-----------------------------------|

       Am                  D
(From "Everybody knows the score")
|-----------------------------------------------------------------------|
|-22b20--17-----------------------------------------20------------------|
|-----------19b21--19b21--19b21b19-17-----17h19b21------21b19p17-----17-|
|-------------------------------------19-------------------------19-----|
|-----------------------------------------------------------------------|
|-----------------------------------------------------------------------|

       C        G               Am
(From "  I have finally found a way to live")
|------------20-------------------|
|---------20----------------------|
|-19b21-----------21b19-17--------|
|---------------------------17h19-|
|---------------------------------|
|---------------------------------|

       F        G            C
(From "  In the color of the Lord.")
|----------------------12-|
|----------10-13-13-10----|
|-10h12-------------------|
|-------------------------|
|-------------------------|
|-------------------------|

       F        G            C
(From "  In the color of the Lord.")
|-----------------------------------------------------|
|-13-10-13b15b13-10-13------11-----11-----11----------|
|---------------------------10b12--10b12--12b10-------|
|-----------------------------------------------13-10-|
|-----------------------------------------------------|
|-----------------------------------------------------|


____________________________________________________________________________________________________
____________________________________________________________________________________________________
____________________________________________________________________________________________________


Song: Blues Power

Band: Eric Clapton

Album: Eric Clapton


Intro:
|-------5p3p0---0---------|------------8-11b13-|-8p7-5-----------|---------5/7-----|
|-----5-------3---3---3---|---------10---------|-------8-5h7-----|-----5-8-7/8---8-|
|-2h5---------------5---2-|------10------------|-------------7---|-4-7-----------7-|
|-------------------------|-7-10---------------|---------------7-|-5---------------|
|-------------------------|--------------------|-----------------|-----------------|
|-------------------------|--------------------|-----------------|-----------------|

       C                                           F
(From "Bet you didn't think I knew how to Rock and Roll")
|-0-------------------------------------------------------------------|
|-1-------------------13-13-13-------13-------13-------13-15p13----13-|
|-0-------------10/14-14-14-14-12/14----12/14----12/14----------14----|
|-2-------------------------------------------------------------------|
|-3-------------------------------------------------------------------|
|---------------------------------------------------------------------|

                                                          C
(From "Lord I got the boogie-woogie right down in my very soul")
|-------8------------------|
|-----8---8-11b13--13--13\-|
|-8h9----------------------|
|--------------------------|
|--------------------------|
|--------------------------|

                                              D      B7
(From "There ain't no need for me to be a wallflower")
|---------10-12b14---14b12p10----|
|------10---------------------12-|
|-9/11---------------------------|
|--------------------------------|
|--------------------------------|
|--------------------------------|

                                      C
(From "'Cause  now 'm living on blues power")

1st Guitar Solo:
|-14\--------------8--------------8-------------------------15-15-15-15-15-15p13----15-15--|
|-15\---11h13-13-----11-8-----------------------------------15-15-15-15-15-15----16--------|
|-------------------------8----------------------------------------------------------------|
|---------------------------10b12----12b10p8-------------8---------------------------------|
|--------------------------------------------10---10--10-----------------------------------|
|------------------------------------------------------------------------------------------|

|-15p13-11-13---13b15-13-11----13-11--------13-----13--------------11----------------|
|---------------------------13-------13-----13b15--13b15b13-11-----13b15--13--11-----|
|--------------------------------------------------------------12-----------------12-|
|------------------------------------------------------------------------------------|
|------------------------------------------------------------------------------------|
|------------------------------------------------------------------------------------|

(From "I knew all the time but now I'm gonna let you know")
|-----------------------------------------15-------------|
|-------13----13----15b17b15-13----15b17-----17b15-13-13-|
|-/14------14--------------------------------------------|
|--------------------------------------------------------|
|--------------------------------------------------------|
|--------------------------------------------------------|

(From "I'm gonna keep rockin' no matter if it's fast or slow")
|-------15---13---12---10/12-|
|-13/17-17---15---13---12/13-|
|----------------------------|
|----------------------------|
|----------------------------|
|----------------------------|

(From "Ain't gonna stop 'til the 25th hour")
|-12b14--12b14--12b14b12-10-----10h12-10-------|
|---------------------------12-------------12\-|
|----------------------------------------------|
|----------------------------------------------|
|----------------------------------------------|
|----------------------------------------------|

(From "'Cause now I'm livin' on Blues Power")

2nd Guitar Solo:
|-14\------------------------------------------------------------------------------15b17--17b15-13-|
|-15\---------13-15--13b15---15b13-10---------------------------------13--13-15p13-----------------|
|-------11h14---------------------------14b12-10---12p10------7-/-14-------------------------------|
|--------------------------------------------------------12----------------------------------------|
|--------------------------------------------------------------------------------------------------|
|--------------------------------------------------------------------------------------------------|

|--------13b15---------14-14-14\12-----10-----8--7----------------------------------------|
|----------------------15-15-15\14--12-----10----8----15-----15---------------------------|
|-/11-14---------11-14--------------------------------14b16--14b16---12----12----12-14b16-|
|-----------------------------------------------------------------------12----15----------|
|-----------------------------------------------------------------------------------------|
|-----------------------------------------------------------------------------------------|

(From "Bet you didn't think I knew how the Rock and Roll")
|----------------------------------------------------|
|-15b16--15b16--15b16--15b16--15b16b15-13----13---15-|
|-----------------------------------------14---------|
|----------------------------------------------------|
|----------------------------------------------------|
|----------------------------------------------------|

(From "Lord I got the boogie-woogie right down in my very soul")
|--------------------------------|
|-------11-13-----11-13----------|
|-10/12--------12-------12-10----|
|-----------------------------13-|
|--------------------------------|
|--------------------------------|

(From "There ain't no need for me to be a wallflower")
|--------------------------------|
|-13b15-15---10------------------|
|---------------12b14------------|
|-----------------------12-10-9--|
|--------------------------------|
|--------------------------------|

(From "'Cause now I'm livin' on Blues Power")

3rd Guitar Solo:
|-15\-----------------------------11----------11---13b15---15b13p11-13-----13b15-15-15b13p11-13----|
|-16\--11h13-13--13--13--13-11-13----13-11-13--------------------------13-----------------------13-|
|--------------------------------------------------------------------------------------------------|
|--------------------------------------------------------------------------------------------------|
|--------------------------------------------------------------------------------------------------|
|--------------------------------------------------------------------------------------------------|

|-13b15--11---------------15b13p11----------11--11-12-13-11-12-13-13b15-13-11h13----|
|------------13--13-11-------------13-11h13--------------------------------------13-|
|-----------------------------------------------------------------------------------|
|-----------------------------------------------------------------------------------|
|-----------------------------------------------------------------------------------|
|-----------------------------------------------------------------------------------|

|-11-------------------8--------------------8-------8-------------------------------|
|----13-----------------------------------------------------------------11b13-11b13-|
|-------12-10-8-10b12-------10b12-12--10b12---10b12----12b10p8--12b10p8-------------|
|-----------------------------------------------------------------------------------|
|-----------------------------------------------------------------------------------|
|-----------------------------------------------------------------------------------|

|-----------------------------------------------------------------------------11/15---11/15-|
|-13-11---------------------------------11----11--------------------------------------------|
|-------12-10---------------------------12b10-11b10-----------------------------------------|
|-------------13-10----10-10----10-13---------------13-10----10--10--10--10-----------------|
|-------------------13-------13---------------------------13--------------------------------|
|-------------------------------------------------------------------------------------------|

|----11--------11-------11b13------------------------11------8-11p8----8-11p8----11p8----8-8-11b13-|
|-13----13-13-----13-11--------11-13-13-13--13-11-13----13----------11--------11------11-----------|
|--------------------------------------------------------------------------------------------------|
|--------------------------------------------------------------------------------------------------|
|--------------------------------------------------------------------------------------------------|
|--------------------------------------------------------------------------------------------------|

|-13---8-11----8-10-8----8h10p8----8--8\---15\---------13-15----13-15--------------11-------11-|
|-----------11--------11--------11---------16\---13-16-------16---------16-13-13------13-13----|
|-------------------------------------------------------------------------------------12-12----|
|----------------------------------------------------------------------------------------------|
|----------------------------------------------------------------------------------------------|
|----------------------------------------------------------------------------------------------|

|-11----------------------------------------------------------------------------|
|----13-11\8---------------------11-------11----------/11--13-13-13-11-13-13-13-|
|---------------10b12--12--10b12----10b12----10p8-------------------------------|
|------------10-----------------------------------10----------------------------|
|-------------------------------------------------------------------------------|
|-------------------------------------------------------------------------------|
                                                                     Fade Away


____________________________________________________________________________________________________
____________________________________________________________________________________________________
____________________________________________________________________________________________________


Song: After Midnight

Band: Eric Clapton

Album: Eric Clapton


Intro:
|----------------------------------------------------------------------------5--------|
|-10-------------------------6-x-6-6-----------------6-x-6-6-----------------6--6-x-6-|
|-10------------5-----5-5-5--5-x-5-5----5-----5-5-5--5-x-5-5----5-----5-5-5-----5-x-5-|
|-10------------5h7p5-7-7-5----------5--5h7p5-7-7-5----------5--5h7p5-7-7-5-----------|
|-8-----------------------------------------------------------------------------------|
|-------------------------------------------------------------------------------------|

|--------------5--------|
|--------------6--6-x-6-|
|-5-----5-5-5-----5-x-5-|
|-5h7p5-7-7-5-----------|
|-----------------------|
|-----------------------|

(From "After midnight, we're gonna let it all hang down.")
|---------------------------------------------------|
|------------------------------4-x-4-x-4--6-x-6-x-6-|
|-5-----5-5------5-----5-5-----3-x-3-x-3--5-x-5-x-5-|
|-5h7p5-7-7p5----5h7p5-7-7p5------------------------|
|---------------------------------------------------|
|---------------------------------------------------|

|-------------------------------------------------|
|--------------6-x-6-x-4----------------6-x-6-x-4-|
|-5-----5-5----5-x-5-x-3---5-----5-5----5-x-5-x-3-|
|-5h7p5-7-7p5--------------5h7p5-7-7p5------------|
|-------------------------------------------------|
|-------------------------------------------------|

(From "After midnight, we're gonna chug-a-lug and shout.")
|---------------------------------------------------|
|------------------------------4-x-4-x-4--6-x-6-x-6-|
|-5-----5-5------5-----5-5-----3-x-3-x-3--5-x-5-x-5-|
|-5h7p5-7-7p5----5h7p5-7-7p5------------------------|
|---------------------------------------------------|
|---------------------------------------------------|

|-------------------------------------------------|
|--------------6-x-6-x-4----------------6-x-6-x-4-|
|-5-----5-5----5-x-5-x-3---5-----5-5----5-x-5-x-3-|
|-5h7p5-7-7p5--------------5h7p5-7-7p5------------|
|-------------------------------------------------|
|-------------------------------------------------|


(From "We're gonna stimulate some action...")
|----------------------------------------------------------------------------------------|
|-------------------------------6-x-6-x-6-x-6-x-6-x-6-x-8-x-8-x-8--8-x-8-x-8--8-x-8-x-8--|
|-5-----5-5------5-----5-5------5-x-5-x-5-x-5-x-5-x-5-x-7-x-7-x-7--7-x-7-x-7--7-x-7-x-7--|
|-5h7p5-7-7p5----5h7p5-7-7p5-------------------------------------------------------------|
|----------------------------------------------------------------------------------------|
|----------------------------------------------------------------------------------------|


(From "After midnight, we're gonna let it all hang down.")
|---------------------------------------------------|
|------------------------------4-x-4-x-4--6-x-6-x-6-|
|-5-----5-5------5-----5-5-----3-x-3-x-3--5-x-5-x-5-|
|-5h7p5-7-7p5----5h7p5-7-7p5------------------------|
|---------------------------------------------------|
|---------------------------------------------------|

|-------------------------------------------------|
|--------------6-x-6-x-4----------------6-x-6-x-4-|
|-5-----5-5----5-x-5-x-3---5-----5-5----5-x-5-x-3-|
|-5h7p5-7-7p5--------------5h7p5-7-7p5------------|
|-------------------------------------------------|
|-------------------------------------------------|

(From "After midnight, we're gonna shake your tambourine.")
|---------------------------------------------------|
|------------------------------4-x-4-x-4--6-x-6-x-6-|
|-5-----5-5------5-----5-5-----3-x-3-x-3--5-x-5-x-5-|
|-5h7p5-7-7p5----5h7p5-7-7p5------------------------|
|---------------------------------------------------|
|---------------------------------------------------|

|-------------------------------------------------|
|--------------6-x-6-x-4----------------6-x-6-x-4-|
|-5-----5-5----5-x-5-x-3---5-----5-5----5-x-5-x-3-|
|-5h7p5-7-7p5--------------5h7p5-7-7p5------------|
|-------------------------------------------------|
|-------------------------------------------------|

(From "After midnight, it's all gonna be peaches and cream.")
|---------------------------------------------------|
|------------------------------4-x-4-x-4--6-x-6-x-6-|
|-5-----5-5------5-----5-5-----3-x-3-x-3--5-x-5-x-5-|
|-5h7p5-7-7p5----5h7p5-7-7p5------------------------|
|---------------------------------------------------|
|---------------------------------------------------|

|-------------------------------------------------|
|--------------6-x-6-x-4----------------6-x-6-x-4-|
|-5-----5-5----5-x-5-x-3---5-----5-5----5-x-5-x-3-|
|-5h7p5-7-7p5--------------5h7p5-7-7p5------------|
|-------------------------------------------------|
|-------------------------------------------------|


(From "We're gonna cause talk and suspicion...")
|----------------------------------------------------------------------------------------|
|-------------------------------6-x-6-x-6-x-6-x-6-x-6-x-8-x-8-x-8--8-x-8-x-8--8-x-8-x-8--|
|-5-----5-5------5-----5-5------5-x-5-x-5-x-5-x-5-x-5-x-7-x-7-x-7--7-x-7-x-7--7-x-7-x-7--|
|-5h7p5-7-7p5----5h7p5-7-7p5-------------------------------------------------------------|
|----------------------------------------------------------------------------------------|
|----------------------------------------------------------------------------------------|

(From "After midnight, we're gonna let it all hang down.")
|---------------------------------------------------|
|------------------------------4-x-4-x-4--6-x-6-x-6-|
|-5-----5-5------5-----5-5-----3-x-3-x-3--5-x-5-x-5-|
|-5h7p5-7-7p5----5h7p5-7-7p5------------------------|
|---------------------------------------------------|
|---------------------------------------------------|

|-------------------------------------------------|
|--------------6-x-6-x-4----------------6-x-6-x-4-|
|-5-----5-5----5-x-5-x-3---5-----5-5----5-x-5-x-3-|
|-5h7p5-7-7p5--------------5h7p5-7-7p5------------|
|-------------------------------------------------|
|-------------------------------------------------|

Guitar Solo:
|------------------------------------------------11---------------------|
|-/11-/13-13\-----/11-/13-13\-----/11-/13-13\--------13--11-------------|
|------------------------------------------------------------12--10--8--|
|-----------------------------------------------------------------------|
|-----------------------------------------------------------------------|
|-----------------------------------------------------------------------|

|------------------------------------------------11---------------------|
|-/11-/13-13\-----/11-/13-13\-----/11-/13-13\--------13--11-------------|
|------------------------------------------------------------12--10--8--|
|-----------------------------------------------------------------------|
|-----------------------------------------------------------------------|
|-----------------------------------------------------------------------|

|--------8---------8---------8-------------------------------11p8---11p8---11p8---11p8---|
|-------------------------------11---------11---------------------8------8------8------8-|
|-10b12-----10b12-----10b12---------10b12------12b10--8----------------------------------|
|--------------------------------------------------------10------------------------------|
|----------------------------------------------------------------------------------------|
|----------------------------------------------------------------------------------------|

|-11p8---11p8---11p8---11p8---10--8-------------------------------------------|
|------8------8------8------8--------11-8-------------------------------------|
|-----------------------------------------10b12-----12b10p8-10p8----8---------|
|----------------------------------------------------------------10---10-8-10-|
|-----------------------------------------------------------------------------|
|-----------------------------------------------------------------------------|

(From "After midnight, we're gonna let it all hang down.")
|---------------------------------------------------|
|------------------------------4-x-4-x-4--6-x-6-x-6-|
|-5-----5-5------5-----5-5-----3-x-3-x-3--5-x-5-x-5-|
|-5h7p5-7-7p5----5h7p5-7-7p5------------------------|
|---------------------------------------------------|
|---------------------------------------------------|

|-------------------------------------------------|
|--------------6-x-6-x-4----------------6-x-6-x-4-|
|-5-----5-5----5-x-5-x-3---5-----5-5----5-x-5-x-3-|
|-5h7p5-7-7p5--------------5h7p5-7-7p5------------|
|-------------------------------------------------|
|-------------------------------------------------|

(From "After midnight, we're gonna let it all hang down.")
|---------------------------------------------------|
|------------------------------4-x-4-x-4--6-x-6-x-6-|
|-5-----5-5------5-----5-5-----3-x-3-x-3--5-x-5-x-5-|
|-5h7p5-7-7p5----5h7p5-7-7p5------------------------|
|---------------------------------------------------|
|---------------------------------------------------|

|-------------------------------------------------|
|--------------6-x-6-x-4----------------6-x-6-x-4-|
|-5-----5-5----5-x-5-x-3---5-----5-5----5-x-5-x-3-|
|-5h7p5-7-7p5--------------5h7p5-7-7p5------------|
|-------------------------------------------------|
|-------------------------------------------------|

(From "After midnight, we're gonna shake your tambourine.")
|---------------------------------------------------|
|------------------------------4-x-4-x-4--6-x-6-x-6-|
|-5-----5-5------5-----5-5-----3-x-3-x-3--5-x-5-x-5-|
|-5h7p5-7-7p5----5h7p5-7-7p5------------------------|
|---------------------------------------------------|
|---------------------------------------------------|

|-------------------------------------------------|
|--------------6-x-6-x-4----------------6-x-6-x-4-|
|-5-----5-5----5-x-5-x-3---5-----5-5----5-x-5-x-3-|
|-5h7p5-7-7p5--------------5h7p5-7-7p5------------|
|-------------------------------------------------|
|-------------------------------------------------|


(From "We're gonna cause talk and suspicion...")
|----------------------------------------------------------------------------------------|
|-------------------------------6-x-6-x-6-x-6-x-6-x-6-x-8-x-8-x-8--8-x-8-x-8--8-x-8-x-8--|
|-5-----5-5------5-----5-5------5-x-5-x-5-x-5-x-5-x-5-x-7-x-7-x-7--7-x-7-x-7--7-x-7-x-7--|
|-5h7p5-7-7p5----5h7p5-7-7p5-------------------------------------------------------------|
|----------------------------------------------------------------------------------------|
|----------------------------------------------------------------------------------------|


(From "After midnight, we're gonna let it all hang down.")
|---------------------------------------------------|
|------------------------------4-x-4-x-4--6-x-6-x-6-|
|-5-----5-5------5-----5-5-----3-x-3-x-3--5-x-5-x-5-|
|-5h7p5-7-7p5----5h7p5-7-7p5------------------------|
|---------------------------------------------------|
|---------------------------------------------------|

|-------------------------------------------------|
|--------------6-x-6-x-4----------------6-x-6-x-4-|
|-5-----5-5----5-x-5-x-3---5-----5-5----5-x-5-x-3-|
|-5h7p5-7-7p5--------------5h7p5-7-7p5------------|
|-------------------------------------------------|
|-------------------------------------------------|

(From "After midnight, we're gonna let it all hang down.")
|-11b13--11--8-----------------------------|
|--------------11---------11---------------|
|-----------------10b12-------8----10-8----|
|-------------------------------10------10-|
|------------------------------------------|
|------------------------------------------|

(From "After midnight, we're gonna let it all hang down.")
|---------11p8------8------------------------|
|-11b13--------11p8---11p8----8--------------|
|--------------------------10---10-8---10----|
|-----------------------------------------10-|
|--------------------------------------------|
|--------------------------------------------|

(From "After midnight, we're gonna let it all hang down.")
|-11b13--13-10b11-----8-10p8------8-|
|-------------------8--------10-----|
|-----------------------------------|
|-----------------------------------|
|-----------------------------------|
|-----------------------------------|

(From "After midnight, we're gonna let it all hang down.")
|------8--10b11-8-10b11-8--10--8------8------------8------------------------------|
|-8h11----------------------------11-----------------11-8--------11---------------|
|---------------------------------------------------------10b12-----8----10-8-----|
|---------------------------------------------------------------------10------10--|
|---------------------------------------------------------------------------------|
|---------------------------------------------------------------------------------|

Fade Away

"After midnight, we're gonna let it all hang down."


____________________________________________________________________________________________________
____________________________________________________________________________________________________
____________________________________________________________________________________________________

Song: Let It Rain

Band: Eric Clapton

Album: Eric Clapton


Intro:
|-0--0--------3--------3--3--3-2-3-5---|-0--0--------3--------3--3--3-2-3-5---|
|-5--5--5-3-5---3------3--3----------5-|-5--5--5-3-5---3------3--3----------5-|
|--------------------------------------|--------------------------------------|
|--------------------------------------|--------------------------------------|
|--------------------------------------|--------------------------------------|
|--------------------------------------|--------------------------------------|

|-0--0--------3--------3--3--3-2-3-5---|-0--0--------3--------3--3--3-2-3-5---|
|-5--5--5-3-5---3------3--3----------5-|-5--5--5-3-5---3------3--3----------5-|
|--------------------------------------|--------------------------------------|
|--------------------------------------|--------------------------------------|
|--------------------------------------|--------------------------------------|
|--------------------------------------|--------------------------------------|

|-0--0--------3--------3--3--3-2-3-5-3-2---|
|-5--5--5-3-5---3------3--3--------------5-|
|------------------------------------------|
|------------------------------------------|
|------------------------------------------|
|------------------------------------------|

The rain is falling through the mist of sorrow that surrounded me.
The sun could never thaw away the bliss that lays around me.

(From "Let it Rain,")
|------------------|
|-------------/7-5-|
|----------2-------|
|------------------|
|------------------|
|------------------|

(From "Let it Rain,")
|------------------|
|-------------/7-5-|
|----------2-------|
|------------------|
|------------------|
|------------------|

(From "Let your love rain down on me")
|-------------------------------|
|-5---5---2---/7---5------------|
|-------------------------------|
|-------------------------------|
|-------------------------------|
|-------------------------------|

(From "Let it Rain,")
|------------------|
|-------------/7-5-|
|----------2-------|
|------------------|
|------------------|
|------------------|

(From "Let it Rain,")
|------------------|
|-------------/7-5-|
|----------2-------|
|------------------|
|------------------|
|------------------|

Let it Rain, Rain, Rain.

Her life was like a desert flower burning in the sun.
Until i found the way to love, it's harder said than done.

(From "Let it Rain,")
|------------------|
|-------------/7-5-|
|----------2-------|
|------------------|
|------------------|
|------------------|

(From "Let it Rain,")
|------------------|
|-------------/7-5-|
|----------2-------|
|------------------|
|------------------|
|------------------|

(From "Let your love rain down on me")
|-------------------------------|
|-5---5---2---/7---5------------|
|-------------------------------|
|-------------------------------|
|-------------------------------|
|-------------------------------|

(From "Let it Rain,")
|------------------|
|-------------/7-5-|
|----------2-------|
|------------------|
|------------------|
|------------------|

(From "Let it Rain,")
|------------------|
|-------------/7-5-|
|----------2-------|
|------------------|
|------------------|
|------------------|

Let it Rain, Rain, Rain.

|-0--0--------3--------3--3--3-2-3-5---|
|-5--5--5-3-5---3------3--3----------5-|
|--------------------------------------|
|--------------------------------------|
|--------------------------------------|
|--------------------------------------|

|-0--0--------3--------3--3--3-2-3-5-3-2---|
|-5--5--5-3-5---3------3--3--------------5-|
|------------------------------------------|
|------------------------------------------|
|------------------------------------------|
|------------------------------------------|


1st Guitar Solo:
|-------------9----------------------14-14--12-10----------------------|
|----9-10-12-----12-10----------------------------12-12-13p12p10-------|
|-11-------------------------------------------------------------11----|
|----------------------------------------------------------------------|
|----------------------------------------------------------------------|
|----------------------------------------------------------------------|


 Guitar 1
|-------2------------------2--------|
|-3-3-5---5-3-5------3-3-5---5-3-5--|
|-----------------------------------|
|-----------------------------------|
|-----------------------------------|
|-----------------------------------|
|                                   |
|                                   |
|Guitar 2                           |
|--------------7-10------7----------|
|-------------8-----10-8------------|
|------------9----------------------|
|-----------------------------------|
|-----------------------------------|
|-----------------------------------|


 Guitar 1
|-------2------------------2--------|
|-3-3-5---5-3-5------3-3-5---5-3-5--|
|-----------------------------------|
|-----------------------------------|
|-----------------------------------|
|-----------------------------------|
|                                   |
|                                   |
|Guitar 2                           |
|--------------7-10-------------7---|
|-------------8-----10-8-10p8-------|
|------------9----------------9-----|
|-----------------------------------|
|-----------------------------------|
|-----------------------------------|



 Guitar 1
|-------2------------------2--------|
|-3-3-5---5-3-5------3-3-5---5-3-5--|
|-----------------------------------|
|-----------------------------------|
|-----------------------------------|
|-----------------------------------|
|                                   |
|                                   |
|Guitar 2                           |
|--------------7-----------------7--|
|-------------8--8--10p8---10p8-----|
|------------9-----------9-----9----|
|-----------------------------------|
|-----------------------------------|
|-----------------------------------|


Now i know the secret, there is nothing that I lack.
If i give my love to you, you'll surely give it back.

(From "Let it Rain,")
|------------------|
|-------------/7-5-|
|----------2-------|
|------------------|
|------------------|
|------------------|

(From "Let it Rain,")
|------------------|
|-------------/7-5-|
|----------2-------|
|------------------|
|------------------|
|------------------|

(From "Let your love rain down on me")
|-------------------------------|
|-5---5---2---/7---5------------|
|-------------------------------|
|-------------------------------|
|-------------------------------|
|-------------------------------|

(From "Let it Rain,")
|------------------|
|-------------/7-5-|
|----------2-------|
|------------------|
|------------------|
|------------------|

(From "Let it Rain,")
|------------------|
|-------------/7-5-|
|----------2-------|
|------------------|
|------------------|
|------------------|

Let it Rain, Rain, Rain.

(From "Let it Rain,")
|------------------|
|-------------/7-5-|
|----------2-------|
|------------------|
|------------------|
|------------------|

(From "Let it Rain,")
|------------------|
|-------------/7-5-|
|----------2-------|
|------------------|
|------------------|
|------------------|

(From "Let your love rain down on me")
|-------------------------------|
|-5---5---2---/7---5------------|
|-------------------------------|
|-------------------------------|
|-------------------------------|
|-------------------------------|

(From "Let it Rain,")
|------------------|
|-------------/7-5-|
|----------2-------|
|------------------|
|------------------|
|------------------|

(From "Let it Rain,")
|------------------|
|-------------/7-5-|
|----------2-------|
|------------------|
|------------------|
|------------------|

Let it Rain, Rain, Rain.

|-0--0--------3--------3--3--3-2-3-5---|
|-5--5--5-3-5---3------3--3----------5-|
|--------------------------------------|
|--------------------------------------|
|--------------------------------------|
|--------------------------------------|

|-0--0--------3--------3--3--3-2-3-5---|
|-5--5--5-3-5---3------3--3----------5-|
|--------------------------------------|
|--------------------------------------|
|--------------------------------------|
|--------------------------------------|

|-0--0--------3--------3--3--3-2-3-5---|
|-5--5--5-3-5---3------3--3----------5-|
|--------------------------------------|
|--------------------------------------|
|--------------------------------------|
|--------------------------------------|

Guitar Solo:
|-17-17-17-17-17-17-17-17-17-17-17-17-17-17-17-17-17-17-17-17-17-|
|----------------------------------------------------------------|
|----------------------------------------------------------------|
|----------------------------------------------------------------|
|----------------------------------------------------------------|
|----------------------------------------------------------------|

|-17-17-17-17-17-17-17-17-17-17-17-17-17-17-17-17-17-17-17-17-17-|
|----------------------------------------------------------------|
|----------------------------------------------------------------|
|----------------------------------------------------------------|
|----------------------------------------------------------------|
|----------------------------------------------------------------|

|-15-15-15-15-14-14-14-14----------------------------------------|
|-------------------------17-17-17-17-15-15-15-15-14-------------|
|----------------------------------------------------------------|
|----------------------------------------------------------------|
|----------------------------------------------------------------|
|----------------------------------------------------------------|

|----------------------------------------------------------------|
|-14--15--14p12---------------------------------------------14---|
|---------------14------14-14-14-14-14-14-14-14-14-14-14-14------|
|----------------------------------------------------------------|
|----------------------------------------------------------------|
|----------------------------------------------------------------|

|----------------------------------------------------------------17-|
|---14---15---14p12--------14--17-19--19-17-19-17-19-19-19-19-19----|
|-------------------14----------------------------------------------|
|-------------------------------------------------------------------|
|-------------------------------------------------------------------|
|-------------------------------------------------------------------|

|--17h19p17----21------21--21-21--19-------22----22--21--22--21-|
|-----------17--------------------------------------------------|
|---------------------------------------------------------------|
|---------------------------------------------------------------|
|---------------------------------------------------------------|
|---------------------------------------------------------------|

|------19-----19-----19-----19-----19-|
|-19h22--19h22--19h22--19h22--19h22---|
|-------------------------------------|
|-------------------------------------|
|-------------------------------------|
|-------------------------------------|

|-19p17p14-19p17p14-19p17p14-19p17p14-19p17p14-19/21--19-17h19p17----17-|
|-----------------------------------------------------------------19----|
|-----------------------------------------------------------------------|
|-----------------------------------------------------------------------|
|-----------------------------------------------------------------------|
|-----------------------------------------------------------------------|

|---------------------------------|
|-17h19-17h19-17------------------|
|-----------------14h16p14----14--|
|--------------------------16-----|
|---------------------------------|
|---------------------------------|

|-------14-------17--------|
|-------------------17-----|
|-14-16----------------14--|
|--------------------------|
|--------------------------|
|--------------------------|

|--------------------------------------------------------------------------|
|--------------------------------------------------------------------------|
|------14-14-16p14--14-16p14-------------------------------14----14----14--|
|-14h16-----------16--------16-14-16p14--------------14-16----16----16-----|
|--------------------------------------16------14-16-----------------------|
|--------------------------------------------------------------------------|

Keyboard Solo Tab for Guitar:
|-------------------------------------------------------------------------------------------------|
|-------------------------------------------------------------------------------------------------|
|-2-2-2-2-2-2-2-2-2-2--0-0-------------------------------------------0-0--------------------------|
|--------------------------4-4--2-2-2-2----------------------------------4-4-2-2-2-2--------------|
|----------------------------------------4-4-2-2-0-0-0-0-0-0-0-0-0-0------------------4-4-2-2-0-0-|
|-------------------------------------------------------------------------------------------------|

|----------------------------------------------------------|
|----------------------------------------------------------|
|-----------------------------------------------2-2-2-2/-\-|
|---------------------------------------2-2-4-4------------|
|-----0-0-0-0-0-0-0-0-0-0-0-0-0-2-2-4-4--------------------|
|-3/5------------------------------------------------------|

Continue to Guitar Solo:
|----17-19--20---20---20---20---20-20-20-20-20-20-19p17----17--17\-|
|-19----------------------------------------------------19-----17\-|
|------------------------------------------------------------------|
|------------------------------------------------------------------|
|------------------------------------------------------------------|
|------------------------------------------------------------------|

|20---19p17---20---19p17---20---19p17---20---19p17---20p17---17-17--17-17-17|
|----------19-----------19-----------19-----------19------19------19--------|
|---------------------------------------------------------------------------|
|---------------------------------------------------------------------------|
|---------------------------------------------------------------------------|
|---------------------------------------------------------------------------|

|------17-17------17-----17-----17-----17-----17-----17-------------------|
|-17h19------17h19--17h19--17h19--17h19--17h19--17h19---19-17-------------|
|-------------------------------------------------------------18-16-18-14-|
|-------------------------------------------------------------------------|
|-------------------------------------------------------------------------|
|-------------------------------------------------------------------------|

|-------------------------------------------------------------|
|-------------------------------------------------------------|
|-------14-16-14-18----14-16-14----------------------------14-|
|-14-16-------------------------16-14----------------14-16----|
|-------------------------------------16-12--12-14-16---------|
|-------------------------------------------------------------|

|-----------------------------|
|-----------------------------|
|----------------14h16p14-----|
|----------14-16----------16--|
|-12-14-16--------------------|
|-----------------------------|

|----14-12--------------------12--------12----------------------------------|
|-14-------14-12-14-12----14-----14--------14-12----------------------------|
|----------------------14------------------------14-11----------------------|
|---------------------------------------------------------14-11-------11-14-|
|---------------------------------------------------------------14-12-------|
|---------------------------------------------------------------------------|

|----12-12----12----12----12----12----12----12----12----12----12-|
|-14-------14----14----14----14----14----14----14----14----14----|
|----------------------------------------------------------------|
|----------------------------------------------------------------|
|----------------------------------------------------------------|
|----------------------------------------------------------------|

|-----------------------------------------------------|
|-14--12----------------------------------------------|
|--------14--11-14--11-14--11-14--11-14--11-14--11-14-|
|-----------------------------------------------------|
|-----------------------------------------------------|
|-----------------------------------------------------|

|-------12-----------------------------------------------------------21b23--|
|-12-14----14-12--14-12-----------------------------------------------------|
|-----------------------14-11------------------------13b14------------------|
|-----------------------------14-12-14-12------------------14---------------|
|-----------------------------------------14-12-----------------------------|
|---------------------------------------------------------------------------|


____________________________________________________________________________________________________
____________________________________________________________________________________________________
____________________________________________________________________________________________________


Song: Bell Bottom Blues

Band: Derek And The Dominos

Album: Layla And Other Assorted Love Songs


 E/G#=[4024xx]

Intro:
|--------------------------------------------------------------------------------------------|
|--------0------1----------------------------------------------------------------------------|
|------------------0------------1-------------2------------------------------------------4---|
|------0---0h2--------2------2-----2-------2-----2---------2------------3-------------5----5-|
|-2--3--------------------2-------------0---------------3-----3------3-----3-------5---------|
|----------------------------------------------------3------------1-----------1/3------------|

|-13--------------10-----|
|----13-11-----------12--|
|----------10b12---------|
|------------------------|
|------------------------|
|------------------------|

(From "Bell Bottoms Blues, you make me cry...")
 Guitar I
|----------------------------------------------------------------------|
|----------------------------------------------------------------------|
|-------0-----------1-----------2---------------------------------4----|
|----2-----2-----2-----2-----2-----2--------2-----------3------------5-|
|-3-----------2-----------0--------------3-----3-----3---------5-------|
|-------------------------------------3-----------1--------1/3---------|

Guitar II
|---------------------------------13--------------10-----|
|-------------8----------------------13-11-----------12--|
|-----5--7b9----9b7p5--5-------------------10b12---------|
|-5-7----------------------------------------------------|
|--------------------------------------------------------|
|--------------------------------------------------------|


(From "If I could choose a place to die...")
 Guitar I
|----------------------------------------------------------------------|
|----------------------------------------------------------------------|
|-------0-----------1-----------2---------------------------------4----|
|----2-----2-----2-----2-----2-----2--------2-----------3------------5-|
|-3-----------2-----------0--------------3-----3-----3---------5-------|
|-------------------------------------3-----------1--------1/3---------|

 Guitar II
|-15b17---15--15b17b15------------------------5-5-|
|----------------------15b17--13----------5-8-----|
|-------------------------------------------------|
|-------------------------------------------------|
|-------------------------------------------------|
|-------------------------------------------------|



       A                    E/G#             F#m           D   E
(From " Do you wanna see me crawl across the floor for you?     ")
|-15b17---17---17---17b15-12---------15----------|
|----------------------------15b17------17b15-13-|
|------------------------------------------------|
|------------------------------------------------|
|------------------------------------------------|
|------------------------------------------------|

       A                       E/G#               Fm   D   E
(From " Do you want to hear me beg me to take you back?     ")
|-17-20-20b22--20----17----17---17---17\--|
|-----------------------20----------------|
|-----------------------------------------|
|-----------------------------------------|
|-----------------------------------------|
|-----------------------------------------|

       A               Amaj7    A7  D                E
(From "I don't want to fade away    give me one more day please")
|-10------10------10------10------10-----10-----6--6\----------6--6------------------8----10\-|
|-----11------11------10------10------9------9---------8--8\---------8--8--8/11-11-8---11-----|
|---------------------------------------------------------------------------------------------|
|---------------------------------------------------------------------------------------------|
|---------------------------------------------------------------------------------------------|
|---------------------------------------------------------------------------------------------|

|-13--------------10-----|
|----13-11-----------12--|
|----------10b12---------|
|------------------------|
|------------------------|
|------------------------|
 

(From " It's all wrong,  but its alright")
|---------------------15----15b17b15----12-------|
|-15b17-----13--15b17----------------------15-13-|
|------------------------------------------------|
|------------------------------------------------|
|------------------------------------------------|
|------------------------------------------------|

|-13--------------10-----|
|----13-11-----------12--|
|----------10b12---------|
|------------------------|
|------------------------|
|------------------------|

(From "Once I was strong...")
|-----------------------------------------|
|-10h13p10-----------------------8--------|
|-----------9h11p9---------7b9------9b7-5-|
|-------------------7h10p7----------------|
|-----------------------------------------|
|-----------------------------------------|

(From "Do you want to see me crawl across the floor for you")
|-15b17--17b15b17---17--17--17--17--17--19--19b21--17-|
|-----------------------------------------------------|
|-----------------------------------------------------|
|-----------------------------------------------------|
|-----------------------------------------------------|
|-----------------------------------------------------|

(From " Do you want to hear me beg me to take you back?")
|-17-20-20b22--20----17----17---17---17\--|
|-----------------------20----------------|
|-----------------------------------------|
|-----------------------------------------|
|-----------------------------------------|
|-----------------------------------------|

(From "I don't want to fade away...")
|-10------10------10------10------10-----10-----6--6\----------6--6------------------8----10\-|
|-----11------11------10------10------9------9---------8--8\---------8--8--8/11-11-8---11-----|
|---------------------------------------------------------------------------------------------|
|---------------------------------------------------------------------------------------------|
|---------------------------------------------------------------------------------------------|
|---------------------------------------------------------------------------------------------|

(From "I don't want to fade away...")
|-10------10------10------10------10-----10-----6--6\----------6--6------------------8----10\-|
|-----11------11------10------10------9------9---------8--8\---------8--8--8/11-11-8---11-----|
|---------------------------------------------------------------------------------------------|
|---------------------------------------------------------------------------------------------|
|---------------------------------------------------------------------------------------------|
|---------------------------------------------------------------------------------------------|

|-13--------------10-----|
|----13-11-----------12--|
|----------10b12---------|
|------------------------|
|------------------------|
|------------------------|


Guitar Solo:
|-----------------------------15b17--15------------------------15b17---b15---------------|
|-12--13--15--15b17-------13-------------15b17b17-13-------13----------------15b17b15-13-|
|----------------------------------------------------------------------------------------|
|----------------------------------------------------------------------------------------|
|----------------------------------------------------------------------------------------|
|----------------------------------------------------------------------------------------|

|----------------------------------------------------|---------------------------------------------|
|----------------------------------------------------|-------13-----15b17b15b17~-13-15-13-13-15b17-|
|-12h14-12-------------------------------------------|-12h14----14---------------------------------|
|-----------12\10---12p10-------12b14b12--10---12-12-|---------------------------------------------|
|-------------------------12-------------------------|---------------------------------------------|
|----------------------------------------------------|---------------------------------------------|

|-15b17--12--------------------------------------|
|--------------15b17-13-13---13-15-13---15-15-15-|
|------------------------------------------------|
|------------------------------------------------|
|------------------------------------------------|
|------------------------------------------------|

(From "Do you want to see me crawl across the floor for you")
|-------------------------------------|
|-8b10--10--10---10b8-5-------8-------|
|-----------------------7b9-----9b7---|
|-----------------------------------7-|
|-------------------------------------|
|-------------------------------------|

(From "I don't want to fade away...")
|-10------10------10------10------10-----10-----6--6\----------6--6------------------8----10\-|
|-----11------11------10------10------9------9---------8--8\---------8--8--8/11-11-8---11-----|
|---------------------------------------------------------------------------------------------|
|---------------------------------------------------------------------------------------------|
|---------------------------------------------------------------------------------------------|
|---------------------------------------------------------------------------------------------|

(From "I don't want to fade away...")
|-10------10------10------10------10-----10-----6--6\----------6--6------------------8----10\-|
|-----11------11------10------10------9------9---------8--8\---------8--8--8/11-11-8---11-----|
|---------------------------------------------------------------------------------------------|
|---------------------------------------------------------------------------------------------|
|---------------------------------------------------------------------------------------------|
|---------------------------------------------------------------------------------------------|

|-13--------------10-----|
|----13-11-----------12--|
|----------10b12---------|
|------------------------|
|------------------------|
|------------------------|

(From "Bell bottom blues, don't say goodbye")
|-15b17----12---------15------------------|
|--------------15b17------17b15--13-------|
|------------------------------------14---|
|-----------------------------------------|
|-----------------------------------------|
|-----------------------------------------|

|-13--------------10-------------------------|
|----13-11-----------12----------------------|
|----------10b12-----------------------------|
|-------------------------------11h13p11---9-|
|--------------------------------------------|
|--------------------------------------------|

(From "And if we do, don't be surprised")
|-15b17----------------------|
|----------------15b17b15-13-|
|----------------------------|
|----------------------------|
|----------------------------|
|----------------------------|

(From "Do you want to see me crawl across the floor for you")
|-17-20-20b22--20b22--20b22--20b22--17-17-----17-17-|
|-----------------------------------------/20-------|
|---------------------------------------------------|
|---------------------------------------------------|
|---------------------------------------------------|
|---------------------------------------------------|

(From " Do you want to hear me beg me to take you back?")
|-17-20-20b22--20----17----17---17---17\--|
|-----------------------20----------------|
|-----------------------------------------|
|-----------------------------------------|
|-----------------------------------------|
|-----------------------------------------|

(From "I don't want to fade away...")
|-10------10------10------10------10-----10-----6--6\----------6--6------------------8----10\-|
|-----11------11------10------10------9------9---------8--8\---------8--8--8/11-11-8---11-----|
|---------------------------------------------------------------------------------------------|
|---------------------------------------------------------------------------------------------|
|---------------------------------------------------------------------------------------------|
|---------------------------------------------------------------------------------------------|

(From "I don't want to fade away...")
|-10------10------10------10------10-----10-----6--6\----------6--6------------------8----10\-|
|-----11------11------10------10------9------9---------8--8\---------8--8--8/11-11-8---11-----|
|---------------------------------------------------------------------------------------------|
|---------------------------------------------------------------------------------------------|
|---------------------------------------------------------------------------------------------|
|---------------------------------------------------------------------------------------------|

(From "I don't want to fade away...")
|-10------10------10------10------10-----10-----6--6\----------6--6------------------8----10\-|
|-----11------11------10------10------9------9---------8--8\---------8--8--8/11-11-8---11-----|
|---------------------------------------------------------------------------------------------|
|---------------------------------------------------------------------------------------------|
|---------------------------------------------------------------------------------------------|
|---------------------------------------------------------------------------------------------|

(From "I don't want to fade away...")
|-10------10------10------10------10-----10-----6--6\----------6--6------------------8----10\-|
|-----11------11------10------10------9------9---------8--8\---------8--8--8/11-11-8---11-----|
|---------------------------------------------------------------------------------------------|
|---------------------------------------------------------------------------------------------|
|---------------------------------------------------------------------------------------------|
|---------------------------------------------------------------------------------------------|

(From "I don't want to fade away...")
|-10------10------10------10------10-----10-----6--6\----------6--6------------------8----10\-|
|-----11------11------10------10------9------9---------8--8\---------8--8--8/11-11-8---11-----|
|---------------------------------------------------------------------------------------------|
|---------------------------------------------------------------------------------------------|
|---------------------------------------------------------------------------------------------|
|---------------------------------------------------------------------------------------------|

(From "I don't want to fade away...")
|-10------10------10------10------10-----10-----6--6\----------6--6------------------8----10\-|
|-----11------11------10------10------9------9---------8--8\---------8--8--8/11-11-8---11-----|
|---------------------------------------------------------------------------------------------|
|---------------------------------------------------------------------------------------------|
|---------------------------------------------------------------------------------------------|
|---------------------------------------------------------------------------------------------|

Outro:
|-13--------------10-----|
|----13-11-----------12--|
|----------10b12---------|
|------------------------|
|------------------------|
|------------------------|


____________________________________________________________________________________________________
____________________________________________________________________________________________________
____________________________________________________________________________________________________


Song: Layla

Band: Derek And The Dominos/Duane Allman Of The Allman Brothers Band

Album: Layla And Other Assorted Love Songs

Intro:

 Guitar I
|-----------------------------------------------|------------------------------------------------|
|-----------------------------------------------|------------------------------------------------|
|-----------------------------------------------|------------------------------------------------|
|------0h3p0-----0------------------------------|------0h3p0-----0-------------------------------|
|-0h3---------3---------------------------------|-0h3---------3----------------------------------|
|-----------------------------------------------|------------------------------------------------|
|Guitar II
|-----------------------------------------------|------------------------------------------------|
|-----------------------------------------------|------------------------------------------------|
|------7h10p7----7------------------------------|------7h10p7----7-------------------------------|
|-7h10--------10--------------------------------|-7h10--------10---------------------------------|
|-----------------------------------------------|------------------------------------------------|
|-----------------------------------------------|------------------------------------------------|   
|Guitar III
|-----------------------------------------------|------------------------------------------------|
|-----------------------------------------------|------------------------------------------------|
|---------------------------------------------2-|---------------------------------------------2--|
|------------------7\5--3----2-----5----2-----0-|------------------7\5--3----2-----5----2-----0--|
|------------------5\3--1----0-----3----0-------|------------------5\3--1----0-----3----0--------|
|-------------------------------3----------3----|-------------------------------3----------3-----|


Chorus:
|-------10h13p10----10----13b15---13---12--------10-|
|-10h13----------13-------------------------13------|
|---------------------------------------------------|
|---------------------------------------------------|
|---------------------------------------------------|
|---------------------------------------------------|

|-------10h13p10----10----15b17---15---12--------10-|
|-10h13----------13-------------------------13------|
|---------------------------------------------------|
|---------------------------------------------------|
|---------------------------------------------------|
|---------------------------------------------------|


|-------10h13p10----10----13b15---13---12--------10-|
|-10h13----------13-------------------------13------|
|---------------------------------------------------|
|---------------------------------------------------|
|---------------------------------------------------|
|---------------------------------------------------|

|-------10h13p10----10----15b17---15---12--------------|
|-10h13----------13-------------------------13---12b14-|
|------------------------------------------------------|
|------------------------------------------------------|
|------------------------------------------------------|
|------------------------------------------------------|

(From "What'll you do when you get lonely...")
|-------------------------------------------------------------------------|
|-14b12-9-12-----14b12p9--------------------------------------------------|
|------------------------11b13---11b13b11p9--9---9---11b13---11--9--11--9-|
|-------------------------------------------------------------------------|
|-------------------------------------------------------------------------|
|-------------------------------------------------------------------------|

|----------------------------------------------------------------------------------|
|------------------------------------12--------------------------------------------|
|-----9---9-9-11p9----9--11--11b13------13b11-----------------11b13---11b13b11p9-9-|
|-11---------------11--------------------------9h11-----9h11-----------------------|
|----------------------------------------------------------------------------------|
|----------------------------------------------------------------------------------|

(From "Layla! Got me on my knees")
|-------10h13p10----10----13b15---13---12--------10-|
|-10h13----------13-------------------------13------|
|---------------------------------------------------|
|---------------------------------------------------|
|---------------------------------------------------|
|---------------------------------------------------|

|-------10h13p10----10----15b17---15---12--------10-|
|-10h13----------13-------------------------13------|
|---------------------------------------------------|
|---------------------------------------------------|
|---------------------------------------------------|
|---------------------------------------------------|


|-------10h13p10----10----13b15---13---12--------10-|
|-10h13----------13-------------------------13------|
|---------------------------------------------------|
|---------------------------------------------------|
|---------------------------------------------------|
|---------------------------------------------------|

|-------10h13p10----10----15b17---15---12--------------|
|-10h13----------13-------------------------13---12b14-|
|------------------------------------------------------|
|------------------------------------------------------|
|------------------------------------------------------|
|------------------------------------------------------|


(From "Tried to give you consolation...")
|-------------------------------------------------------------------------|
|-14b12-9-12-----14b12p9--------------------------------------------------|
|------------------------11b13---11b13b11p9--9---9---11b13---11--9--11--9-|
|-------------------------------------------------------------------------|
|-------------------------------------------------------------------------|
|-------------------------------------------------------------------------|

|----------------------------------------------------------------------------------|
|------------------------------------12--------------------------------------------|
|-----9---9-9-11p9----9--11--11b13------13b11-----------------11b13---11b13b11p9-9-|
|-11---------------11--------------------------9h11-----9h11-----------------------|
|----------------------------------------------------------------------------------|
|----------------------------------------------------------------------------------|


(From "Layla! Got me on my knees")
|-------10h13p10----10----13b15---13---12--------10-|
|-10h13----------13-------------------------13------|
|---------------------------------------------------|
|---------------------------------------------------|
|---------------------------------------------------|
|---------------------------------------------------|

|-------10h13p10----10----15b17---15---12--------10-|
|-10h13----------13-------------------------13------|
|---------------------------------------------------|
|---------------------------------------------------|
|---------------------------------------------------|
|---------------------------------------------------|


|-------10h13p10----10----13b15---13---12--------10-|
|-10h13----------13-------------------------13------|
|---------------------------------------------------|
|---------------------------------------------------|
|---------------------------------------------------|
|---------------------------------------------------|

|-------10h13p10----10----15b17---15---12--------------|
|-10h13----------13-------------------------13---12b14-|
|------------------------------------------------------|
|------------------------------------------------------|
|------------------------------------------------------|
|------------------------------------------------------|


(From "Let's make the best of the situation...")
|-------------------------------------------------------------------------|
|-14b12-9-12-----14b12p9--------------------------------------------------|
|------------------------11b13---11b13b11p9--9---9---11b13---11--9--11--9-|
|-------------------------------------------------------------------------|
|-------------------------------------------------------------------------|
|-------------------------------------------------------------------------|

|----------------------------------------------------------------------------------|
|------------------------------------12--------------------------------------------|
|-----9---9-9-11p9----9--11--11b13------13b11-----------------11b13---11b13b11p9-9-|
|-11---------------11--------------------------9h11-----9h11-----------------------|
|----------------------------------------------------------------------------------|
|----------------------------------------------------------------------------------|


(From "Layla! Got me on my knees")
|-------10h13p10----10----13b15---13---12--------10-|
|-10h13----------13-------------------------13------|
|---------------------------------------------------|
|---------------------------------------------------|
|---------------------------------------------------|
|---------------------------------------------------|

|-------10h13p10----10----15b17---15---12--------10-|
|-10h13----------13-------------------------13------|
|---------------------------------------------------|
|---------------------------------------------------|
|---------------------------------------------------|
|---------------------------------------------------|


|-------10h13p10----10----13b15---13---12--------10-|
|-10h13----------13-------------------------13------|
|---------------------------------------------------|
|---------------------------------------------------|
|---------------------------------------------------|
|---------------------------------------------------|

|-------10h13p10----10----15b17---15---12--------------|
|-10h13----------13-------------------------13---12b14-|
|------------------------------------------------------|
|------------------------------------------------------|
|------------------------------------------------------|
|------------------------------------------------------|


(From "Layla! Got me on my knees")
|-------10h13p10----10----13b15---13---12--------10-|
|-10h13----------13-------------------------13------|
|---------------------------------------------------|
|---------------------------------------------------|
|---------------------------------------------------|
|---------------------------------------------------|

|-------10h13p10----10----15b17---15---12--------10-|
|-10h13----------13-------------------------13------|
|---------------------------------------------------|
|---------------------------------------------------|
|---------------------------------------------------|
|---------------------------------------------------|


|-------10h13p10----10----13b15---13---12--------10-|
|-10h13----------13-------------------------13------|
|---------------------------------------------------|
|---------------------------------------------------|
|---------------------------------------------------|
|---------------------------------------------------|

|-------10h13p10----10----15b17---15---12--------------|
|-10h13----------13-------------------------13---12b14-|
|------------------------------------------------------|
|------------------------------------------------------|
|------------------------------------------------------|
|------------------------------------------------------|


Slide Guitar Solo (Solo is done by Duane Allman):
|-/22--22--22--22--22--24--/25--\24--\22--20/22--22-----22\20----22------------------------------|
|----22--22--22--22-------------------------------------------22-------22\20----22----20-/22-\15-|
|----------------------------------------------------------------------------22------------------|
|------------------------------------------------------------------------------------------------|
|------------------------------------------------------------------------------------------------|
|------------------------------------------------------------------------------------------------|

|-/22---22\20-/22---22\20--22/24-\20----/29---\27/29--\27/29------/20------------/22---22\20----|
|-----------------------------------------------------------------------20\18\17-------------22-|
|-----------------------------------------------------------------------------------------------|
|-----------------------------------------------------------------------------------------------|
|-----------------------------------------------------------------------------------------------|
|-----------------------------------------------------------------------------------------------|

|-/24--/25\24--22------22\20----22----/24----20--/22--22------22\20----22------------------|
|----------------------------22-------------------------------------22------22\20\18-20/22-|
|------------------------------------------------------------------------------------------|
|------------------------------------------------------------------------------------------|
|------------------------------------------------------------------------------------------|
|------------------------------------------------------------------------------------------|

|------------------20/22-----22\20----22----22\----22----22\20----22-/24--22---22\20-22-/24-/25-|
|-22\20\18-20/22-------------------22-----------20-------------22-------------------------------|
|-----------------------------------------------------------------------------------------------|
|-----------------------------------------------------------------------------------------------|
|-----------------------------------------------------------------------------------------------|
|-----------------------------------------------------------------------------------------------|

|-\24\22\20---/24\20/22---22\20---22--22--22--22--22--22--22-/29---27/29--27/29--27/29/31--29-|
|-----------------------------------22--22--22--22--22--22------------------------------------|
|---------------------------------------------------------------------------------------------|
|---------------------------------------------------------------------------------------------|
|---------------------------------------------------------------------------------------------|
|---------------------------------------------------------------------------------------------|

Intro to Piano Coda (Still Slide Solo)
|-/20--------------------------------|
|-------22\20----20----22--22--\--13-|
|-------------22---------------------|
|------------------------------------|
|------------------------------------|
|------------------------------------|

_ _ _ _ _ _ _ _ _ _ _ _ _ _ _ _ _ _ _ _ _ _ _ _ _ _ _ _ _ _ _ _ _ _ _ _ _ _ _ _ _ _ _ _ _ _ _ _ _ _ 
 _ _ _ _ _ _ _ _ _ _ _ _ _ _ _ _ _ _ _ _ _ _ _ _ _ _ _ _ _ _ _ _ _ _ _ _ _ _ _ _ _ _ _ _ _ _ _ _ _ _

Layla Piano Coda:

Piano Tab for Guitar:
|---------------------------------------------------------------|
|-------------------5---5-5--5----8----6-6-----5-5------3-3---1-|
|-5-----5----5------5---5-5--5----9----7-7-----5-5------3-3---2-|
|-5-----5----5------5---5-5--5----10---8-8-----7-7------5-5---3-|
|-3---3----3---3----7---7-7--7------------------------------3---|
|------------------------------------8-------8-------8----------|

|-------------------------------------------------------------------------------0----------|
|-------------------5---5-5--5----8----6-6-----5-5------3-3---1--3----------1-3---3-1----1-|
|-5-----5----5------5---5-5--5----9----7-7-----5-5------3-3---2--1--------1-----------1----|
|-5-----5----5------5---5-5--5----10---8-8-----7-7------5-5---3--3-------------------------|
|-3---3----3---3----7---7-7--7------------------------------3--------1-1---------1-1---1-3-|
|------------------------------------8-------8-------8-------------------------------------|

Intro (Where Guitar comes in) (03:34)
|--------------------------------------|
|-1-----1----1---1---------------------|
|-0h2---0----0h2-0---------------------|
|--------------------------------------|
|--------------------------------------|
|--------------------------------------|

Slide Guitar work during coda:
|-3--/15---15-15---15/17\15---15-15----15-15--\13-13--\12-12--\10-10------------------------------|
|--------------------------------------------------------------------13-13/15-15\13-13---13/15-15-|
|-------------------------------------------------------------------------------------------------|
|-------------------------------------------------------------------------------------------------|
|-------------------------------------------------------------------------------------------------|
|-------------------------------------------------------------------------------------------------|

|-12/13-13\12----|-8--/20---20-20\19-19/20-20---19---/17---15---------------------------|
|-------------13-|----------------------------------------------/18---17----------------|
|----------------|---------------------------------------------------------/19---17--19-|
|----------------|----------------------------------------------------------------------|
|----------------|----------------------------------------------------------------------|
|----------------|----------------------------------------------------------------------|

|----------------------------------|-------------------------------------------20---17----------|
|-/18---17----------------20\18/20-|-18/20----18---17------------------------------------18/20--|
|------------/19---17--------------|--------------------/19---16--/17-17---17-------------------|
|----------------------------------|------------------------------------------------------------|
|----------------------------------|------------------------------------------------------------|
|----------------------------------|------------------------------------------------------------|

|-------------------------------|-20---20--20-21-22---24---25---24---22---20-|-17--/19-----|
|-18----------------------------|--------------------------------------------|---------20--|
|------19---17/19\17/19\17/19~--|--------------------------------------------|-------------|
|-------------------------------|--------------------------------------------|-------------|
|-------------------------------|--------------------------------------------|-------------|
|-------------------------------|--------------------------------------------|-------------|

|---------------------------------------------------------------------------------------|
|-18\17/18\17-------------15/17--17/18-18------17-18-18/20---20-20\18-18-20---20/23--20-|
|-------------17---19-----------------------19------------------------------------------|
|---------------------------------------------------------------------------------------|
|---------------------------------------------------------------------------------------|
|---------------------------------------------------------------------------------------|

|-----20-19-17-----------|-------------------------------------20--/22-22\20-20-/22-20-/22-20-|
|-20-----------20-17-----|-17-18-18/20-----18/10-20---18-18-----------------------------------|
|---------------------17-|--------------------------------------------------------------------|
|------------------------|--------------------------------------------------------------------|
|------------------------|--------------------------------------------------------------------|
|------------------------|--------------------------------------------------------------------|

|-/22---20-/22-20--22--/24--20-------------------------|-------------------------------------|
|---------------------------------17-18\17----17-18\17-|-17-18\17----17-18\17----17-18\17----|
|------------------------------------------17----------|----------17----------17----------17-|
|------------------------------------------------------|-------------------------------------|
|------------------------------------------------------|-------------------------------------|
|------------------------------------------------------|-------------------------------------|

|-----------------------------------------------------------------------20-|-20-20----17---|
|-20\17-------17/18\17------------17-----17/18---17-/18-------18\17--------|---------------|
|-------17--------------17/19\17-------------------------17---------17-----|---------------|
|--------------------------------------------------------------------------|---------------|
|--------------------------------------------------------------------------|---------------|
|--------------------------------------------------------------------------|---------------|

|-20-20-20/22---19--/20-20----20--/22-22\20-20--17---17/19------17---/19---/22--20-|-20-20-20---20-|
|----------------------------------------------------------20----------------------|---------------|
|----------------------------------------------------------------------------------|---------------|
|----------------------------------------------------------------------------------|---------------|
|----------------------------------------------------------------------------------|---------------|
|----------------------------------------------------------------------------------|---------------|

|-/20---17------------|-------------------------20--20/22---20----------------------------|
|------------20---17--|-18-\17-------18\17----------------------18\17-----/17-------------|
|---------------------|---------17---------17-------------------------17----------19-\-17-|
|---------------------|-------------------------------------------------------------------|
|---------------------|-------------------------------------------------------------------|
|---------------------|-------------------------------------------------------------------|

|----------------------15-/20---17------------|---------------------------------|------------------|
|-20---20---20/22\20-----------------/20---17-|------------------17/18/20\18-17-|------------------|
|---------------------------------------------|-17/19--19-\-17------------------|-17--17/19--19\17-|
|---------------------------------------------|---------------------------------|------------------|
|---------------------------------------------|---------------------------------|------------------|
|---------------------------------------------|---------------------------------|------------------|

|-17---17/20---17-----------|----------------------------20--20/25-\-24-\-22-\-20-|-20-20/22-22-|
|-------------------20---17-|-17--17---17/18-18\17-17-----------------------------|-------------|
|---------------------------|-----------------------------------------------------|-------------|
|---------------------------|-----------------------------------------------------|-------------|
|---------------------------|-----------------------------------------------------|-------------|
|---------------------------|-----------------------------------------------------|-------------|

|-20/22-22-\20------------20---17-----------------------|
|--------------20---18\17-----------20---18\17----------|
|----------------------------------------------17/19-19-|
|-------------------------------------------------------|
|-------------------------------------------------------|
|-------------------------------------------------------|

Outro:
 Guitar I (Electric Slide Guitar)
|----------------------------------------20-/--------------24-24\---------|
|----------------------------------/17---------18\17----------------------|
|----------------------------------/17---------------17-------------------|
|----------------------------------/17------------------------------------|
|-------------------------------------------------------------------------|
|-------------------------------------------------------------------------|
|                                                                         |
|                                                                         |
|Guitar II (Acoustic 12-string)                                           |
|----------0-----------------------0--------------------------------------|
|----1--3------3---1-------1----------------------------------------------|
|-1-------------------1----------0----------------------------------------|
|------------------------------2------------------------------------------|
|----------------------------3--------------------------------------------|
|-------------------------------------------------------------------------|



____________________________________________________________________________________________________
____________________________________________________________________________________________________
____________________________________________________________________________________________________


Song: I Shot The Sheriff

Band: Eric Clapton

Album: 461 Ocean Boulevard

Intro:
(From "I shot the sheriff, but I did not shoot the deputy")
 Guitar I
  Gm                    Cm7                   Gm
|-3-3-x--3---3-3-x--3---3-3-x--3---3-3-x--3---3-3-x--3---3-3-x--3---3-3-x-3-x3-x-3-x-3-3-|
|-3-3-x--3---3-3-x--3---4-4-x--4---4-4-x--4---3-3-x--3---3-3-x--3---3-3-x-3-x3-x-3-x-3-3-|
|-3-3-x--3---3-3-x--3---3-3-x--3---3-3-x--3---3-3-x--3---3-3-x--3---3-3-x-3-x3-x-3-x-3-3-|
|-----------------------5-5-x--5---5-5-x--5----------------------------------------------|
|----------------------------------------------------------------------------------------|
|----------------------------------------------------------------------------------------|
|Guitar II
|----------------------------------------------------------------------------------------|
|----------------------------------------------------------------------------------------|
|----------------------------------------------------------------------------------------|
|-----------------------------------------------3--5-------------------------------------|
|--------------------------------------------5-------------------------------------------|
|----------------------------------------------------------------------------------------|

(From "I shot the sheriff, but I did not shoot the deputy")
 Guitar I
  Gm                      Cm7                     Gm
|-3-3--x-3-x-3-x-3-x-3-3--3-3--x-3-x-3-x-3-x-3-3--3-3--x-3-x-3-x-3-x-3-3---3-3--x-3-x-3-x-3-x-3-3-|
|-3-3--x-3-x-3-x-3-x-3-3--4-4--x-4-x-4-x-4-x-4-4--3-3--x-3-x-3-x-3-x-3-3---3-3--x-3-x-3-x-3-x-3-3-|
|-3-3--x-3-x-3-x-3-x-3-3--3-3--x-3-x-3-x-3-x-3-3--3-3--x-3-x-3-x-3-x-3-3---3-3--x-3-x-3-x-3-x-3-3-|
|-------------------------5-5--x-5-x-5-x-5-x-5-5--------------------------------------------------|
|-------------------------------------------------------------------------------------------------|
|-------------------------------------------------------------------------------------------------|
 Guitar II
|-------------------------------------------------------------------------------------------------|
|-------------------------------------------------------------------------------------------------|
|-------------------------------------------------------------------------------------------------|
|----------------------------------------------------3--5-----------------------------------------|
|-------------------------------------------------5-----------------------------------------------|
|-------------------------------------------------------------------------------------------------|

(From "All around in my home town...")
  A#        Dm7       Gm                    A#        Dm7       Gm
|-------------------------3-3---------3-3-|-------------------------3-3---------3-3-|
|-----8---------6---------3-3---------3-3-|-----8---------6---------3-3---------3-3-|
|-----8---------5---------3-3---------3-3-|-----8---------5---------3-3---------3-3-|
|-----8---------7-------------------------|-----8---------7-------------------------|
|-6---------5-----------------------------|-6---------5-----------------------------|
|---------------------3-----------3-------|---------------------3-----------3-------|

  A#        Dm7       Gm                    A#        Dm7       Gm
|-------------------------3-3---------3-3-|-------------------------3-3---------3-3-|
|-----8---------6---------3-3---------3-3-|-----8---------6---------3-3---------3-3-|
|-----8---------5---------3-3---------3-3-|-----8---------5---------3-3---------3-3-|
|-----8---------7-------------------------|-----8---------7-------------------------|
|-6---------5-----------------------------|-6---------5-----------------------------|
|---------------------3-----------3-------|---------------------3-----------3-------|

  A#        Dm7       Gm
|-------------------------3-3---------3-3-|
|-----8---------6---------3-3---------3-3-|
|-----8---------5---------3-3---------3-3-|
|-----8---------7-------------------------|
|-6---------5-----------------------------|
|---------------------3-----------3-------|

(From "I said...")
  Gm  F   Dm  C   A#    C    A#   Gm
|-----------------------------------|
|-----------------------------------|
|-0---------------------------------|
|-----3---0----------0--------------|
|-------------3---1-----3-3--1-1----|
|---------------------------------3-|


(From "I shot the sheriff, but I swear it was in self-defense")
 Guitar I
  Gm                      Cm7                     Gm
|-3-3--x-3-x-3-x-3-x-3-3--3-3--x-3-x-3-x-3-x-3-3--3-3--x-3-x-3-x-3-x-3-3---3-3--x-3-x-3-x-3-x-3-3-|
|-3-3--x-3-x-3-x-3-x-3-3--4-4--x-4-x-4-x-4-x-4-4--3-3--x-3-x-3-x-3-x-3-3---3-3--x-3-x-3-x-3-x-3-3-|
|-3-3--x-3-x-3-x-3-x-3-3--3-3--x-3-x-3-x-3-x-3-3--3-3--x-3-x-3-x-3-x-3-3---3-3--x-3-x-3-x-3-x-3-3-|
|-------------------------5-5--x-5-x-5-x-5-x-5-5--------------------------------------------------|
|-------------------------------------------------------------------------------------------------|
|-------------------------------------------------------------------------------------------------|
 Guitar II
|-------------------------------------------------------------------------------------------------|
|-------------------------------------------------------------------------------------------------|
|-------------------------------------------------------------------------------------------------|
|----------------------------------------------------3--5-----------------------------------------|
|-------------------------------------------------5-----------------------------------------------|
|-------------------------------------------------------------------------------------------------|

(From "I shot the sheriff, and they say it is a capital offense")
 Guitar I
  Gm                      Cm7                     Gm
|-3-3--x-3-x-3-x-3-x-3-3--3-3--x-3-x-3-x-3-x-3-3--3-3--x-3-x-3-x-3-x-3-3---3-3--x-3-x-3-x-3-x-3-3-|
|-3-3--x-3-x-3-x-3-x-3-3--4-4--x-4-x-4-x-4-x-4-4--3-3--x-3-x-3-x-3-x-3-3---3-3--x-3-x-3-x-3-x-3-3-|
|-3-3--x-3-x-3-x-3-x-3-3--3-3--x-3-x-3-x-3-x-3-3--3-3--x-3-x-3-x-3-x-3-3---3-3--x-3-x-3-x-3-x-3-3-|
|-------------------------5-5--x-5-x-5-x-5-x-5-5--------------------------------------------------|
|-------------------------------------------------------------------------------------------------|
|-------------------------------------------------------------------------------------------------|
 Guitar II
|-------------------------------------------------------------------------------------------------|
|-------------------------------------------------------------------------------------------------|
|-------------------------------------------------------------------------------------------------|
|----------------------------------------------------3--5-----------------------------------------|
|-------------------------------------------------5-----------------------------------------------|
|-------------------------------------------------------------------------------------------------|


(From "Sheriff John Brown always hated me for what? I dont know")
  A#        Dm7       Gm                    A#        Dm7       Gm
|-------------------------3-3---------3-3-|-------------------------3-3---------3-3-|
|-----8---------6---------3-3---------3-3-|-----8---------6---------3-3---------3-3-|
|-----8---------5---------3-3---------3-3-|-----8---------5---------3-3---------3-3-|
|-----8---------7-------------------------|-----8---------7-------------------------|
|-6---------5-----------------------------|-6---------5-----------------------------|
|---------------------3-----------3-------|---------------------3-----------3-------|

  A#        Dm7       Gm                    A#        Dm7       Gm
|-------------------------3-3---------3-3-|-------------------------3-3---------3-3-|
|-----8---------6---------3-3---------3-3-|-----8---------6---------3-3---------3-3-|
|-----8---------5---------3-3---------3-3-|-----8---------5---------3-3---------3-3-|
|-----8---------7-------------------------|-----8---------7-------------------------|
|-6---------5-----------------------------|-6---------5-----------------------------|
|---------------------3-----------3-------|---------------------3-----------3-------|

  A#        Dm7       Gm
|-------------------------3-3---------3-3-|
|-----8---------6---------3-3---------3-3-|
|-----8---------5---------3-3---------3-3-|
|-----8---------7-------------------------|
|-6---------5-----------------------------|
|---------------------3-----------3-------|

(From "I said...")
  Gm  F   Dm  C   A#    C    A#   Gm
|-----------------------------------|
|-----------------------------------|
|-0---------------------------------|
|-----3---0----------0--------------|
|-------------3---1-----3-3--1-1----|
|---------------------------------3-|

(From "I shot the sheriff, but I swear it was in self-defense")
 Guitar I
  Gm                      Cm7                     Gm
|-3-3--x-3-x-3-x-3-x-3-3--3-3--x-3-x-3-x-3-x-3-3--3-3--x-3-x-3-x-3-x-3-3---3-3--x-3-x-3-x-3-x-3-3-|
|-3-3--x-3-x-3-x-3-x-3-3--4-4--x-4-x-4-x-4-x-4-4--3-3--x-3-x-3-x-3-x-3-3---3-3--x-3-x-3-x-3-x-3-3-|
|-3-3--x-3-x-3-x-3-x-3-3--3-3--x-3-x-3-x-3-x-3-3--3-3--x-3-x-3-x-3-x-3-3---3-3--x-3-x-3-x-3-x-3-3-|
|-------------------------5-5--x-5-x-5-x-5-x-5-5--------------------------------------------------|
|-------------------------------------------------------------------------------------------------|
|-------------------------------------------------------------------------------------------------|
 Guitar II
|-------------------------------------------------------------------------------------------------|
|-------------------------------------------------------------------------------------------------|
|-------------------------------------------------------------------------------------------------|
|----------------------------------------------------3--5-----------------------------------------|
|-------------------------------------------------5-----------------------------------------------|
|-------------------------------------------------------------------------------------------------|

(From "I shot the sheriff, but I swear it was in self-defense")
 Guitar I
  Gm                      Cm7                     Gm
|-3-3--x-3-x-3-x-3-x-3-3--3-3--x-3-x-3-x-3-x-3-3--3-3--x-3-x-3-x-3-x-3-3---3-3--x-3-x-3-x-3-x-3-3-|
|-3-3--x-3-x-3-x-3-x-3-3--4-4--x-4-x-4-x-4-x-4-4--3-3--x-3-x-3-x-3-x-3-3---3-3--x-3-x-3-x-3-x-3-3-|
|-3-3--x-3-x-3-x-3-x-3-3--3-3--x-3-x-3-x-3-x-3-3--3-3--x-3-x-3-x-3-x-3-3---3-3--x-3-x-3-x-3-x-3-3-|
|-------------------------5-5--x-5-x-5-x-5-x-5-5--------------------------------------------------|
|-------------------------------------------------------------------------------------------------|
|-------------------------------------------------------------------------------------------------|
 Guitar II
|-------------------------------------------------------------------------------------------------|
|-------------------------------------------------------------------------------------------------|
|-------------------------------------------------------------------------------------------------|
|----------------------------------------------------3--5-----------------------------------------|
|-------------------------------------------------5-----------------------------------------------|
|-------------------------------------------------------------------------------------------------|


(From "Freedom came my way one day...")
  A#        Dm7       Gm                    A#        Dm7       Gm
|-------------------------3-3---------3-3-|-------------------------3-3---------3-3-|
|-----8---------6---------3-3---------3-3-|-----8---------6---------3-3---------3-3-|
|-----8---------5---------3-3---------3-3-|-----8---------5---------3-3---------3-3-|
|-----8---------7-------------------------|-----8---------7-------------------------|
|-6---------5-----------------------------|-6---------5-----------------------------|
|---------------------3-----------3-------|---------------------3-----------3-------|

  A#        Dm7       Gm                    A#        Dm7       Gm
|-------------------------3-3---------3-3-|-------------------------3-3---------3-3-|
|-----8---------6---------3-3---------3-3-|-----8---------6---------3-3---------3-3-|
|-----8---------5---------3-3---------3-3-|-----8---------5---------3-3---------3-3-|
|-----8---------7-------------------------|-----8---------7-------------------------|
|-6---------5-----------------------------|-6---------5-----------------------------|
|---------------------3-----------3-------|---------------------3-----------3-------|

  A#        Dm7       Gm
|-------------------------3-3---------3-3-|
|-----8---------6---------3-3---------3-3-|
|-----8---------5---------3-3---------3-3-|
|-----8---------7-------------------------|
|-6---------5-----------------------------|
|---------------------3-----------3-------|

(From "I said...")
  Gm  F   Dm  C   A#    C    A#   Gm
|-----------------------------------|
|-----------------------------------|
|-0---------------------------------|
|-----3---0----------0--------------|
|-------------3---1-----3-3--1-1----|
|---------------------------------3-|


(From "I shot the sheriff, but I did not shoot the deputy")
 Guitar I
  Gm                    Cm7                   Gm
|-3-3-x--3---3-3-x--3---3-3-x--3---3-3-x--3---3-3-x--3---3-3-x--3---3-3-x-3-x3-x-3-x-3-3-|
|-3-3-x--3---3-3-x--3---4-4-x--4---4-4-x--4---3-3-x--3---3-3-x--3---3-3-x-3-x3-x-3-x-3-3-|
|-3-3-x--3---3-3-x--3---3-3-x--3---3-3-x--3---3-3-x--3---3-3-x--3---3-3-x-3-x3-x-3-x-3-3-|
|-----------------------5-5-x--5---5-5-x--5----------------------------------------------|
|----------------------------------------------------------------------------------------|
|----------------------------------------------------------------------------------------|
|Guitar II
|----------------------------------------------------------------------------------------|
|----------------------------------------------------------------------------------------|
|----------------------------------------------------------------------------------------|
|-----------------------------------------------3--5-------------------------------------|
|--------------------------------------------5-------------------------------------------|
|----------------------------------------------------------------------------------------|

(From "I shot the sheriff, but I did not shoot the deputy")
 Guitar I
  Gm                      Cm7                     Gm
|-3-3--x-3-x-3-x-3-x-3-3--3-3--x-3-x-3-x-3-x-3-3--3-3--x-3-x-3-x-3-x-3-3---3-3--x-3-x-3-x-3-x-3-3-|
|-3-3--x-3-x-3-x-3-x-3-3--4-4--x-4-x-4-x-4-x-4-4--3-3--x-3-x-3-x-3-x-3-3---3-3--x-3-x-3-x-3-x-3-3-|
|-3-3--x-3-x-3-x-3-x-3-3--3-3--x-3-x-3-x-3-x-3-3--3-3--x-3-x-3-x-3-x-3-3---3-3--x-3-x-3-x-3-x-3-3-|
|-------------------------5-5--x-5-x-5-x-5-x-5-5--------------------------------------------------|
|-------------------------------------------------------------------------------------------------|
|-------------------------------------------------------------------------------------------------|
 Guitar II
|-------------------------------------------------------------------------------------------------|
|-------------------------------------------------------------------------------------------------|
|-------------------------------------------------------------------------------------------------|
|----------------------------------------------------3--5-----------------------------------------|
|-------------------------------------------------5-----------------------------------------------|
|-------------------------------------------------------------------------------------------------|


(From "Reflexes got the best of me")
  A#        Dm7       Gm                    A#        Dm7       Gm
|-------------------------3-3---------3-3-|-------------------------3-3---------3-3-|
|-----8---------6---------3-3---------3-3-|-----8---------6---------3-3---------3-3-|
|-----8---------5---------3-3---------3-3-|-----8---------5---------3-3---------3-3-|
|-----8---------7-------------------------|-----8---------7-------------------------|
|-6---------5-----------------------------|-6---------5-----------------------------|
|---------------------3-----------3-------|---------------------3-----------3-------|

  A#        Dm7       Gm                    A#        Dm7       Gm
|-------------------------3-3---------3-3-|-------------------------3-3---------3-3-|
|-----8---------6---------3-3---------3-3-|-----8---------6---------3-3---------3-3-|
|-----8---------5---------3-3---------3-3-|-----8---------5---------3-3---------3-3-|
|-----8---------7-------------------------|-----8---------7-------------------------|
|-6---------5-----------------------------|-6---------5-----------------------------|
|---------------------3-----------3-------|---------------------3-----------3-------|

  A#        Dm7       Gm
|-------------------------3-3---------3-3-|
|-----8---------6---------3-3---------3-3-|
|-----8---------5---------3-3---------3-3-|
|-----8---------7-------------------------|
|-6---------5-----------------------------|
|---------------------3-----------3-------|

(From "I said...")
 Guitar I
  Gm  F   Dm  C   A#    C    A#   Gm
|-------------------------------------|
|-------------------------------------|
|-0-----------------------------------|
|-----3---0----------0----------------|
|-------------3---1-----3-3--1-1------|
|---------------------------------3---|
|Guitar II
|-------------------------------------|
|-------------------------------------|
|---------------------------------5b7-|
|-------------------------------------|
|-------------------------------------|
|-------------------------------------|


(From "I shot the sheriff, but I did not shoot the deputy")
 Guitar I
  Gm                    Cm7                   Gm
|-3-3-x--3---3-3-x--3---3-3-x--3---3-3-x--3---3-3-x--3---3-3-x--3---3-3-x-3-x3-x-3-x-3-3-|
|-3-3-x--3---3-3-x--3---4-4-x--4---4-4-x--4---3-3-x--3---3-3-x--3---3-3-x-3-x3-x-3-x-3-3-|
|-3-3-x--3---3-3-x--3---3-3-x--3---3-3-x--3---3-3-x--3---3-3-x--3---3-3-x-3-x3-x-3-x-3-3-|
|-----------------------5-5-x--5---5-5-x--5----------------------------------------------|
|----------------------------------------------------------------------------------------|
|----------------------------------------------------------------------------------------|
|Guitar II
|----------------------------------------------------------------------------------------|
|----------------------------------------------------------------------------------------|
|----------------------------------------------------------------------------------------|
|-----------------------------------------------3--5-------------------------------------|
|--------------------------------------------5-------------------------------------------|
|----------------------------------------------------------------------------------------|

(From "I shot the sheriff, but I did not shoot the deputy")
 Guitar I
  Gm                      Cm7                     Gm
|-3-3--x-3-x-3-x-3-x-3-3--3-3--x-3-x-3-x-3-x-3-3--3-3--x-3-x-3-x-3-x-3-3---3-3--x-3-x-3-x-3-x-3-3-|
|-3-3--x-3-x-3-x-3-x-3-3--4-4--x-4-x-4-x-4-x-4-4--3-3--x-3-x-3-x-3-x-3-3---3-3--x-3-x-3-x-3-x-3-3-|
|-3-3--x-3-x-3-x-3-x-3-3--3-3--x-3-x-3-x-3-x-3-3--3-3--x-3-x-3-x-3-x-3-3---3-3--x-3-x-3-x-3-x-3-3-|
|-------------------------5-5--x-5-x-5-x-5-x-5-5--------------------------------------------------|
|-------------------------------------------------------------------------------------------------|
|-------------------------------------------------------------------------------------------------|
 Guitar II
|-------------------------------------------------------------------------------------------------|
|-------------------------------------------------------------------------------------------------|
|-------------------------------------------------------------------------------------------------|
|----------------------------------------------------3--5-----------------------------------------|
|-------------------------------------------------5-----------------------------------------------|
|-------------------------------------------------------------------------------------------------|


Outro:
  A#        Dm7       Gm                    A#        Dm7       Gm
|-------------------------3-3---------3-3-|-------------------------3-3---------3-3-|
|-----8---------6---------3-3---------3-3-|-----8---------6---------3-3---------3-3-|
|-----8---------5---------3-3---------3-3-|-----8---------5---------3-3---------3-3-|
|-----8---------7-------------------------|-----8---------7-------------------------|
|-6---------5-----------------------------|-6---------5-----------------------------|
|---------------------3-----------3-------|---------------------3-----------3-------|

  A#        Dm7       Gm                    A#        Dm7       Gm
|-------------------------3-3---------3-3-|-------------------------3-3---------3-3-|
|-----8---------6---------3-3---------3-3-|-----8---------6---------3-3---------3-3-|
|-----8---------5---------3-3---------3-3-|-----8---------5---------3-3---------3-3-|
|-----8---------7-------------------------|-----8---------7-------------------------|
|-6---------5-----------------------------|-6---------5-----------------------------|
|---------------------3-----------3-------|---------------------3-----------3-------|

  A#        Dm7       Gm
|-------------------------3-3---------3-3-|
|-----8---------6---------3-3---------3-3-|
|-----8---------5---------3-3---------3-3-|
|-----8---------7-------------------------|
|-6---------5-----------------------------|
|---------------------3-----------3-------|


____________________________________________________________________________________________________
____________________________________________________________________________________________________
____________________________________________________________________________________________________


Song: Let It Grow

Band: Eric Clapton

Album: 461 Ocean Boulevard


Intro:

Chords

Bm                F#7       D                  E
Standin' at the crossroads, tryin' to read the signs

G            A                   
  To tell me which way I should

Bm             F#7         D              E
Go to find the answer, and all the time I know

G            A               B
  Plant your love and let it grow


B        Bmaj7          B
  Let It Grow,   Let It Grow

E        B               A
  Let it blossom, let it flow


B        Bmaj7              B
  In the sun, the rain, the snow,

E         B             F#7
  Love is lovely let it grow


Bm            F#7        D               E
Lookin' for a reason, to check out on my mind

G       A
 Tryin' hard to get a 

Bm                F#7               D               E
Friend that I can count on, there's nothing left to show

G            A               B
  Plant your love and let it grow

B        Bmaj7          B
  Let It Grow,   Let It Grow

E        B               A
  Let it blossom, let it flow


B        Bmaj7              B
  In the sun, the rain, the snow,

E         B             F#7
  Love is lovely let it grow


 Guitar I (Electric)
   G         D       Em          Bm         A                    G       D           Em
|-------3----2-------------------------------------------------------3---2h3p2------------------|
|---------------3-----------0----3--0------------------2---------0-------------3-----------0----|
|-/4---------------2-----0------------------------2-------2-----------------------2-----0-----0-|
|--------------------2-----------------5\------2-------------2-----------------------2----------|
|-------------------------------------------0---------------------------------------------------|
|-----------------------------------------------------------------------------------------------|
|Guitar II (Acoustic)
|--------------------------------------------------------------/10----/9------------------------|
|----------------------------------------------------------------------------------/12---/10----|
|-----------------------------------------------------------------------------------------------|
|-----------------------------------------------------------------------------------------------|
|-----------------------------------------------------------------------------------------------|
|-----------------------------------------------------------------------------------------------|


 Guitar I (Electric)
  Bm        F#                           Bm
|-----------------------------------------10-b9------------|
|-3--0------------------2------------------------7---------|
|--------------------------3-------------------------------|
|-------4---------4-----------4----------------------------|
|--------------4-----4-------------------------------------|
|-----------2----------------------------------------------|
|Guitar II (Acoustic)
|----------------------------------------------------------|
|---------------------------------------------------7--/12-|
|--------/11-----------------11\9------11------------------|
|---------------------------------12-----------------------|
|----------------------------------------------------------|
|----------------------------------------------------------|


Acoustic Guitar
  Bm      F#7     D     E      G     A    
|--------------/10------5-/7-7-------5/7--------|
|------------------------------5---------5------|
|-----------------------------------------------|
|-------------------------------------------7/9-|
|-----------------------------------------------|
|-----------------------------------------------|

Bm      F#7     D     E      G     A

Bm              F#7              D               E
Time is getting shorter, There's much for you to do

G     A                
 Only ask and you will

Bm               F#7          D             E
Get what you are needing, the rest is up to me

G            A               B
  Plant your love and let it grow


B        Bmaj7          B
  Let It Grow,   Let It Grow

E        B               A
  Let it blossom, let it flow


B        Bmaj7              B
  In the sun, the rain, the snow,

E         B             F#7
  Love is lovely let it grow


B        Bmaj7          B
  Let It Grow,   Let It Grow

E        B               A
  Let it blossom, let it flow

B        Bmaj7              B
  In the sun, the rain, the snow,

E         B             F#7
  Love is lovely let it grow

|-7--------7--9--------10---------10--9-----------------7------------9------|
|----7-----------7----------7------------7--7h9------8-----------10-----10--|
|-------7-----------7----------7------------------7--------7--9-------------|
|---------------------------------------------------------------------------|
|---------------------------------------------------------------------------|
|---------------------------------------------------------------------------|

|-7--------7--9--------10---------10--9-----------------7------------9------|
|----7-----------7----------7------------7--7h9------8-----------10-----10--|
|-------7-----------7----------7------------------7--------7--9-------------|
|---------------------------------------------------------------------------|
|---------------------------------------------------------------------------|
|---------------------------------------------------------------------------|

|-7--------7--9--------10---------10--9-----------------7------------9------|
|----7-----------7----------7------------7--7h9------8-----------10-----10--|
|-------7-----------7----------7------------------7--------7--9-------------|
|---------------------------------------------------------------------------|
|---------------------------------------------------------------------------|
|---------------------------------------------------------------------------|

|-------7-----9--------10---------10--9-----------------7------------9------|
|----7-----------7----------7------------7--7h9------8-----------10-----10--|
|-7--------7--------7----------7------------------7--------7--9-------------|
|---------------------------------------------------------------------------|
|---------------------------------------------------------------------------|
|---------------------------------------------------------------------------|

|-------7-----9--------10---------10--9-----------------7------------9------|
|----7-----------7----------7------------7--7h9------8-----------10-----10--|
|-7--------7--------7----------7------------------7--------7--9-------------|
|---------------------------------------------------------------------------|
|---------------------------------------------------------------------------|
|---------------------------------------------------------------------------|

|-------7-----9--------10---------10--9-----------------7------------9------|
|----7-----------7----------7------------7--7h9------8-----------10-----10--|
|-7--------7--------7----------7------------------7--------7--9-------------|
|---------------------------------------------------------------------------|
|---------------------------------------------------------------------------|
|---------------------------------------------------------------------------|

|-------7-----9--------10---------10--9-----------------7------------9------|
|----7-----------7----------7------------7--7h9------8-----------10-----10--|
|-7--------7--------7----------7------------------7--------7--9-------------|
|---------------------------------------------------------------------------|
|---------------------------------------------------------------------------|
|---------------------------------------------------------------------------|

|-------7-----9--------10---------10--9-----------------7------------9------|
|----7-----------7----------7------------7--7h9------8-----------10-----10--|
|-7--------7--------7----------7------------------7--------7--9-------------|
|---------------------------------------------------------------------------|
|---------------------------------------------------------------------------|
|---------------------------------------------------------------------------|

|-------7-----9--------10---------10--9-----------------7------------9------|
|----7-----------7----------7------------7--7h9------8-----------10-----10--|
|-7--------7--------7----------7------------------7--------7--9-------------|
|---------------------------------------------------------------------------|
|---------------------------------------------------------------------------|
|---------------------------------------------------------------------------|
                                                              Fade Away


____________________________________________________________________________________________________
____________________________________________________________________________________________________
____________________________________________________________________________________________________



Song: Knockin' On Heaven's Door

Band: Eric Clapton (Original: Bob Dylan)

Album: Time Pieces: The Best Of Eric Clapton


Intro (Wah-Pedal):
|------------------------------------------------------------|
|-/12----10----8-------------------5---------5--------5------|
|-/11----9-----7-------------------5---5-----5---5-------5---|
|-----------------------7b8.5b7p5--5---5h7---5-----5-------5-|
|------------------------------------------------------------|
|------------------------------------------------------------|

Guitar work during harmonica solo:
  G                 D                 Am
|-----3-3-x---3-3-------2-2-x---2-2-------0-0-x---0-0----0-0-x---0-0--|
|-----3-3-x---3-3-------3-3-x---3-3-------1-1-x---1-1----1-1-x---1-1--|
|-----0-0-x---0-0-------2-2-x---2-2-------2-2-x---2-2----2-2-x---2-2--|
|-----0-0-x---0-0---0---------------------2-2-x---2-2----2-2-x---2-2--|
|-------------------------------------0-------------------------------|
|-3-------------------------------------------------------------------|

  G                 D                 Am
|-----3-3-x---3-3-------2-2-x---2-2-------0-0-x---0-0----0-0-x---0-0--|
|-----3-3-x---3-3-------3-3-x---3-3-------1-1-x---1-1----1-1-x---1-1--|
|-----0-0-x---0-0-------2-2-x---2-2-------2-2-x---2-2----2-2-x---2-2--|
|-----0-0-x---0-0---0---------------------2-2-x---2-2----2-2-x---2-2--|
|-------------------------------------0-------------------------------|
|-3-------------------------------------------------------------------|

Harmonica solo tab for guitar:
|--------------------------------------------10--------10-----------10--------------------------|
|-10b12-b10-----10b12b10-8-8---10-----10b12-----10b12--------10b12-----12b10-8-8--8--8--8--8--8-|
|-----------------------------------------------------------------------------------------------|
|-----------------------------------------------------------------------------------------------|
|-----------------------------------------------------------------------------------------------|
|-----------------------------------------------------------------------------------------------|

Chords:
G     D                      Am
 Ma,  take this badge off of me

G        D         Am
 I can't use it anymore

G                  D              Am
 It's gettin' dark, too dark to see

G                D                    Am
 I feel like I'm knockin' on heaven's door


G            D                    Am
 Knock knock knockin' on heaven's door

G            D                    Am
 Knock knock knockin' on heaven's door

G            D                    Am
 Knock knock knockin' on heaven's door

G            D                    Am
 Knock knock knockin' on heaven's door


G               D              Am
 Ma, take these guns away from me

G        D             Am
 I can't shoot them anymore

G                     D                Am
 There's a long black cloud coming over me

G                D                    Am
 I feel like I'm knockin' on heaven's door


G            D                    Am
 Knock knock knockin' on heaven's door

G            D                    Am
 Knock knock knockin' on heaven's door


Guitar Solo:
|---------------------------------------------------------------------------------|
|-13b15----13b15b13--------------------------------15----15b13--------------------|
|--------------------14b16--12--11-11b12-11b12------------------14b16--12------12-|
|----------------------------------------------------------------------12--14-----|
|---------------------------------------------------------------------------------|
|---------------------------------------------------------------------------------|

|-----------------------------------------------------15--15\-----------------------------------|
|-15b17--17---15------15b17--15-15b17--b15^-----15h17----------12--13---------------------------|
|----------------------------------------------------------------------12------------------12~--|
|----------------------------------------------------------------------------14b15--14b15-------|
|-----------------------------------------------------------------------------------------------|
|-----------------------------------------------------------------------------------------------|

|-----------------------------------------------|
|-----------------13b12b13b12~------------------|
|--------------------------------------9b7b9b7~-|
|----5--4--7------------------------------------|
|-----------------------------------------------|
|-----------------------------------------------|

G     D                      Am
 Ma,  take this badge off of me

G        D         Am
 I can't use it anymore

G                  D              Am
 It's gettin' dark, too dark to see

G                D                    Am
 I feel like I'm knockin' on heaven's door


G            D                    Am
 Knock knock knockin' on heaven's door

G            D                    Am
 Knock knock knockin' on heaven's door

G            D                    Am
 Knock knock knockin' on heaven's door

|--------------------------|
|-8---10b12---10---8-------|
|---------------------9--7-|
|--------------------------|
|--------------------------|
|--------------------------|

G            D                    Am
 Knock knock knockin' on heaven's door

G            D                    Am

G            D                    Am


Outro:
|---------------------3----------3--|
|---------------------3-------3-----|
|-7b9---7-------------4----4--------|
|------------5/7---5--5-------------|
|---------------------5-------------|
|---------------------3-------------|


____________________________________________________________________________________________________
____________________________________________________________________________________________________
____________________________________________________________________________________________________


Song: Hello Old Friend

Band: Eric Clapton

Album: No Reason To Cry


Intro:
|-/10--\8---------8------------------------------------------|
|---------10--\8------10\8---12\10---------------------------|
|-----------------------------------11---9/11---9------9-----|
|--------------------------------------------------12-----12-|
|------------------------------------------------------------|
|------------------------------------------------------------|

|-/10--\8---------8---------------------|
|---------10--\8------10\8---12\10------|
|-----------------------------------11--|
|---------------------------------------|
|---------------------------------------|
|---------------------------------------|


   G               C               G
As I was strolling down the garden park

|-15\12------------------|
|--------12----10/12-----|
|---------------------12-|
|------------------------|
|------------------------|
|------------------------|

  G            C              G
I saw a flower glowing in the dark

|---------------------------------------------|
|---------------------------------------------|
|-9h12p9--------------------------------------|
|---------9h12p9------------------------------|
|-----------------10h12p10-/14----14-12-10----|
|------------------------------------------12-|

   G                C           G
It looked so pretty and it was unique

  G                C              G
I had to bend down just to have a peek

|--------12\10-----|
|--------12\10--12-|
|---------------12-|
|-12-14------------|
|------------------|
|------------------|


          Bm                Am
Hello old friend (hello old friend)

     c              D            G
It's really good to see you once again

          Bm                Am
Hello old friend (hello old friend)

     c              D            G
It's really good to see you once again

|-/10--\8---------8---------------------|
|---------10--\8------10\8---12\10------|
|-----------------------------------11--|
|---------------------------------------|
|---------------------------------------|
|---------------------------------------|

|-/10--\8---------8---------------------|
|---------10--\8------10\8---12\10------|
|-----------------------------------11--|
|---------------------------------------|
|---------------------------------------|
|---------------------------------------|


G               C              G
Saw you walking underneath the stars

G                    C          G
Couldn't stop 'cause I was in a car

|-12\10--------------|
|---------10/12------|
|-----------------12-|
|--------------------|
|--------------------|
|--------------------|

    G                 C               G
I'm sure the distance wouldn't be too far

   G             C                   G
If I got out and walked to where you are

|-17----15-------------|
|----17----15-17\15----|
|-------------------16-|
|----------------------|
|----------------------|
|----------------------|

          Bm                Am
Hello old friend (hello old friend)

     c              D            G
It's really good to see you once again

          Bm                Am
Hello old friend (hello old friend)

     c              D            G
It's really good to see you once again

|-/10--\8---------8---------------------|
|---------10--\8------10\8---12\10------|
|-----------------------------------11--|
|---------------------------------------|
|---------------------------------------|
|---------------------------------------|

|-/10--\8---------8---------------------|
|---------10--\8------10\8---12\10------|
|-----------------------------------11--|
|---------------------------------------|
|---------------------------------------|
|---------------------------------------|

Organ Solo guitar work:
|-17-----------------15\-------------------------------|
|-----17/19----15\12----------12\10---------10---------|
|------------------------------------9/11------11p9----|
|---------------------------------------------------12-|
|------------------------------------------------------|
|------------------------------------------------------|


   G                 C               G
An old man passed me on the street today

|------------------|
|-10/12------------|
|--------12----9\7-|
|------------------|
|------------------|
|------------------|

  G                  C              G
I thought I knew him but I couldn't say

|-12\10-------|
|---------/12-|
|-------------|
|-------------|
|-------------|
|-------------|

  G                   C                 G
I stopped to think if I could place his frame

|-15\12--------------------|
|--------12------10/12-----|
|-----------------------12-|
|--------------------------|
|--------------------------|
|--------------------------|

G                  C              G
When he tipped his hat I knew his name

|-12\10-------|
|-12\10----12-|
|----------12-|
|-------------|
|-------------|
|-------------|


          Bm                Am
Hello old friend (hello old friend)

     c              D            G
It's really good to see you once again

          Bm                Am
Hello old friend (hello old friend)

     c              D            G
It's really good to see you once again

|-/10--\8---------8---------------------|
|---------10--\8------10\8---12\10------|
|-----------------------------------11--|
|---------------------------------------|
|---------------------------------------|
|---------------------------------------|

|-/10--\8---------8---------------------|
|---------10--\8------10\8---12\10------|
|-----------------------------------11--|
|---------------------------------------|
|---------------------------------------|
|---------------------------------------|


Organ Solo guitar work:
|-15\12------------------------------------|
|--------10--------------------------------|
|-----------9-11----9--------------12---11-|
|----------------12---9-12------9----------|
|--------------------------12--------------|
|------------------------------------------|


          Bm                Am
Hello old friend (hello old friend)

     c              D            G
It's really good to see you once again

          Bm                Am
Hello old friend (hello old friend)

     c              D            G
It's really good to see you once again

|-/10--\8---------8---------------------|
|---------10--\8------10\8---12\10------|
|-----------------------------------11--|
|---------------------------------------|
|---------------------------------------|
|---------------------------------------|

|-/10--\8---------15\12-----------------|-15\12---15\12--17\15------------------|
|---------10--\8--------12---12\10------|----------------------/17-17-15--------|
|-----------------------------------11--|---------------------------------------|
|---------------------------------------|---------------------------------14/16-|
|---------------------------------------|---------------------------------------|
|---------------------------------------|---------------------------------------|

|-17----15----12----------------|
|----17----15----12-15----12----|
|----------------------14----12-|
|-------------------------------|
|-------------------------------|
|-------------------------------|

Outro:
|-12------------------------|
|----12-15----12------------|
|----------14----12-14---12-|
|------------------------12-|
|---------------------------|
|---------------------------|


____________________________________________________________________________________________________
____________________________________________________________________________________________________
____________________________________________________________________________________________________


Song: Cocaine

Band: Eric Clapton

Album: Slowhand


Intro:

 Guitar I
|-------------------------------------------------------------------------|
|-9-9-7-9----7----------------------9-9-7-9----7--------------------------|
|-9-9-7-9----7----------------------9-9-7-9----7--------------------------|
|-9-9-7-9----7----------------------9-9-7-9----7--------------------------|
|-7-7-5-7----5----------------------7-7-5-7----5--------------------------|
|-------------------------------------------------------------------------|
|Guitar II
|-------------------------------------------------------------------------|
|-------------------------------------------------------------------------|
|-----------------------------------7b9----7b9-7--------------------------|
|-------------------------------------------------------------------------|
|-------------------------------------------------------------------------|
|-------------------------------------------------------------------------|
|Guitar III
|-------------------------------------------------------------------------|
|-------------------------------------------------------------------------|
|-------------------------------------------------------------------------|
|-----------------------------------------------------0--------0----------|
|-------------------0h2p0h2p0h2p0-------------------------0h2-----0-------|
|--------------------------------------------------------------------3--0-|


 Guitar I
|-------------------------------------------------------------------------|
|-9-9-7-9----7----------------------9-9-7-9----7--------------------------|
|-9-9-7-9----7----------------------9-9-7-9----7--------------------------|
|-9-9-7-9----7----------------------9-9-7-9----7--------------------------|
|-7-7-5-7----5----------------------7-7-5-7----5--------------------------|
|-------------------------------------------------------------------------|
|Guitar II
|-------------------------------------------------------------------------|
|-------------------------------------------------------------------------|
|-----------9-7-----------------------------------------------------------|
|-------7/9---------------------------------------------------------------|
|-------------------------------------------------------------------------|
|-------------------------------------------------------------------------|
|Guitar III
|-------------------------------------------------------------------------|
|-------------------------------------------------------------------------|
|---------------7-4-------------------------------------------------------|
|---------------------7--5h6--------------------------0--------0----------|
|-----------------------------7--5--7---------------------0h2-----0-------|
|--------------------------------------------------------------------3--0-|


(From "If you want to hang out, you got to take her out, Cocaine")
 Guitar I
|-------------------------------------------------------------------------|
|-9-9-7-9----7----------------------9-9-7-9----7--------------------------|
|-9-9-7-9----7----------------------9-9-7-9----7--------------------------|
|-9-9-7-9----7----------------------9-9-7-9----7--------------------------|
|-7-7-5-7----5----------------------7-7-5-7----5--------------------------|
|-------------------------------------------------------------------------|
|Guitar II
|-------------------------------------------------------------------------|
|-------------------------------------------------------------------------|
|---------------------------------------------9-7-------------------------|
|-----------------------------------------7/9-----------------------------|
|-------------------------------------------------------------------------|
|-------------------------------------------------------------------------|

(From "If you want to be down, down on the ground, Cocaine")
 Guitar I
|-------------------------------------------------------------------------|
|-9-9-7-9----7----------------------9-9-7-9----7--------------------------|
|-9-9-7-9----7----------------------9-9-7-9----7--------------------------|
|-9-9-7-9----7----------------------9-9-7-9----7--------------------------|
|-7-7-5-7----5----------------------7-7-5-7----5--------------------------|
|-------------------------------------------------------------------------|
|Guitar II
|-------------------------------------------------------------------------|
|-------------------------------------------------------------------------|
|---------------------------------------------9-7-------------------------|
|-----------------------------------------7/9-----------------------------|
|-------------------------------------------------------------------------|
|-------------------------------------------------------------------------|

(From "She don't lie...")
                 m
|------------------|
|-9----7----5----4-|
|-9----7----5----4-|
|-9----7----5----4-|
|-7----5----3----2-|
|------------------|

 Guitar I
|-------------------------------------------------------------------------|
|-9-9-7-9----7----------------------9-9-7-9----7--------------------------|
|-9-9-7-9----7----------------------9-9-7-9----7--------------------------|
|-9-9-7-9----7----------------------9-9-7-9----7--------------------------|
|-7-7-5-7----5----------------------7-7-5-7----5--------------------------|
|-------------------------------------------------------------------------|
|Guitar II
|-------------------------------------------------------------------------|
|-------------------7-----------------------------------------------------|
|-----------9-7----------7--------------------9-7-------------------------|
|-------7/9----------------7--------------7/9-----------------------------|
|----------------------------5--------------------------------------------|
|-------------------------------------------------------------------------|
|Guitar III
|-------------------------------------------------------------------------|
|-------------------------------------------------------------------------|
|-------------------------------------------------------------------------|
|-------------------------------------------------------------------------|
|-------------------------------------------5h7-5-------------------------|
|-------------------------------------------------------------------------|


(From "If you got bad news...")
 Guitar I
|-------------------------------------------------------------------------|
|-9-9-7-9----7----------------------9-9-7-9----7--------------------------|
|-9-9-7-9----7----------------------9-9-7-9----7--------------------------|
|-9-9-7-9----7----------------------9-9-7-9----7--------------------------|
|-7-7-5-7----5----------------------7-7-5-7----5--------------------------|
|-------------------------------------------------------------------------|
|Guitar II
|-------------------------------------------------------------------------|
|-------------------------------------------------------------------------|
|---------------------------------------------9-7-------------------------|
|-----------------------------------------7/9-----------------------------|
|-------------------------------------------------------------------------|
|-------------------------------------------------------------------------|
|Guitar III
|-12-12-12-12-12---12-12-12-12-12-----------------------------------------|
|-12-12-12-12-12---12-12-12-12-12-----------------------------------------|
|-------------------------------------------------------------------------|
|-------------------------------------------------------------------------|
|--------------------------------------------------------5-5-7------------|
|----------------------------------------------------5h7------------------|

(From "When your day is done..")
 Guitar I
|-------------------------------------------------------------------------|
|-9-9-7-9----7----------------------9-9-7-9----7--------------------------|
|-9-9-7-9----7----------------------9-9-7-9----7--------------------------|
|-9-9-7-9----7----------------------9-9-7-9----7--------------------------|
|-7-7-5-7----5----------------------7-7-5-7----5--------------------------|
|-------------------------------------------------------------------------|
|Guitar II
|-------------------------------------------------------------------------|
|-------------------------------------------------------------------------|
|---------------------------------------------9-7-------------------------|
|-----------------------------------------7/9-----------------------------|
|-------------------------------------------------------------------------|
|-------------------------------------------------------------------------|
|Guitar III
|-12-12-12-12-12---12-12-12-12-12-----------------------------------------|
|-12-12-12-12-12---12-12-12-12-12-----------------------------------------|
|-------------------------------------------------------------------------|
|-------------------------------------------------------------------------|
|-------------------------------------------------------------------------|
|-------------------------------------------------------------------------|

(From "She don't lie...")

 Guitar I
                 m
|------------------|
|-9----7----5----4-|
|-9----7----5----4-|
|-9----7----5----4-|
|-7----5----3----2-|
|------------------|
|Guitar II
|------------------|
|------------------|
|-7b9--5b7--4b5--4-|
|----------------4-|
|------------------|
|------------------|

 Guitar I
|-------------------------------------------------------------------------|
|-9-9-7-9----7----------------------9-9-7-9----7--------------------------|
|-9-9-7-9----7----------------------9-9-7-9----7--------------------------|
|-9-9-7-9----7----------------------9-9-7-9----7--------------------------|
|-7-7-5-7----5----------------------7-7-5-7----5--------------------------|
|-------------------------------------------------------------------------|
|Guitar II
|-------------------------------------------------------------------------|
|-------------------------------------------------------------------------|
|-----------9-7-------------------------------9-7-------------------------|
|-------7/9--------------7-7--------------7/9-----------------------------|
|-------------------5--------5--------------------------------------------|
|-------------------------------------------------------------------------|


Guitar Solo:
|--------------------------------------------------------------------------------------|
|----------------------------------------------------------12-----12-------------12----|
|----9---12b14---9----9------9---9-----9---12-9-12---9\----14b16--14b16--14b16---16b14-|
|-12---------------12-----12-------12--------------------------------------------------|
|--------------------------------------------------------------------------------------|
|--------------------------------------------------------------------------------------|

|-------------------------------------------------12-------------------------------------------|
|-12--12--12----------------------------------12-----15-12-------------------------------------|
|-14--14-----14b16-12-------9---9-------14b16--------------14-12-------14b16--12---------------|
|------------------------12-------12-----------------------------14-12-----------14-14--12--14-|
|----------------------------------------------------------------------------------------------|
|----------------------------------------------------------------------------------------------|

|-----------------------------------------------------------------12----------------------|
|-15-----------------------------------------------------------12----15-12----------------|
|----14b16--14--12-----12------------12-----------14b16--14b16-------------14b16-14-12----|
|------------------14-----12--14-14-----14--12-14--------------------------------------14-|
|-----------------------------------------------------------------------------------------|
|-----------------------------------------------------------------------------------------|

|----------------------------------------12------------------------------------------------------|
|-12--12--15--15--15-----15--15--15---------15-15-----15-----15----------12-----12-----12--------|
|-----------------14b16--16--14--12------------14b16--16b14--12----------12-----14b16--14b16-----|
|-----------------------------------14---------------------------14--14-----14----------------14-|
|------------------------------------------------------------------------------------------------|
|------------------------------------------------------------------------------------------------|

 Guitar I
|------------------------------------------------------------------------------------------------|
|--------------------------------15-----15--12---------------------------------------------------|
|--------12--12-12--12----12-----14b16--14--12---------------------------------------------------|
|--------12--12-12--12h14-14-14-----------------14-----------12h14-14-12h14-14-12h14-14-12h14-14-|
|-12h14------------------------------------------------------------------------------------------|
|------------------------------------------------------------------------------------------------|
|Guitar II
|---------------------------------------------------------12-------------------------------------|
|------------------------------10b12b10b12-10b12b10-8--------15b17-17-15b17-17-15b17-17-15b17-17-|
|-----------------------------------------------------9------------------------------------------|
|------------------------------------------------------------------------------------------------|
|------------------------------------------------------------------------------------------------|
|------------------------------------------------------------------------------------------------|

Guitar I
|--------------------------------------------------------------------------------------------------|
|-15----------------------------------------------------12-----------------------------------------|
|----14b16b14-12--------------14-14b16b14---14-14b16b14----14---14b16--12-------------12-----------|
|---------------------------------------------------------------------------14-12-14-----12--12-14-|
|--------------------------------------------------------------------------------------------------|
|--------------------------------------------------------------------------------------------------|
|Guitar II
|---------------12-------------------------12------------------------------------------------------|
|------------------15-12----------------------15-12------------------------------------------------|
|------------------------14-12----------12----------14-12------------------------------------------|
|------------------------------14-12-14-------------------14-13------------------------------------|
|--------------------------------------------------------------------------------------------------|
|--------------------------------------------------------------------------------------------------|

Guitar I
|----------------------------------------------------------------------------------------|
|----------------------------------------------------------------------------------------|
|-14b16--16b14--12--14-12-14b16--14----------12-----------------------------------12-----|
|-------------------------------------14-14-----14-12-14-12--------------12--14-------14-|
|-----------------------------------------------------------------12h14------------------|
|----------------------------------------------------------------------------------------|
|Guitar II
|--------------------------------------------12------------------------------------------|
|-----------------------------------------12----15-12------------------------------------|
|-14b16--16b14--12--------12--------12b14-------------14-12------------------------------|
|------------------------------------------------------------14----------12--14-14\------|
|------------------------------------------------------------------12h14-----------------|
|----------------------------------------------------------------------------------------|


(From "If your thing is gone...")
 Guitar I
|-------------------------------------------------------------------------|
|-9-9-7-9----7----------------------9-9-7-9----7--------------------------|
|-9-9-7-9----7----------------------9-9-7-9----7--------------------------|
|-9-9-7-9----7----------------------9-9-7-9----7--------------------------|
|-7-7-5-7----5----------------------7-7-5-7----5--------------------------|
|-------------------------------------------------------------------------|
|Guitar II
|-------------------------------------------------------------------------|
|-------------------------------------------------------------------------|
|---------------------------------------------9-7-------------------------|
|-----------------------------------------7/9-----------------------------|
|-------------------------------------------------------------------------|
|-------------------------------------------------------------------------|
|Guitar III
|-12-12-12-12-12---12-12-12-12-12-----------------------------------------|
|-12-12-12-12-12---12-12-12-12-12-----------------------------------------|
|-------------------------------------------------------------------------|
|-------------------------------------------------------------------------|
|-------------------------------------------------------------------------|
|-------------------------------------------------------------------------|

(From "Dont forget this fact...")
 Guitar I
|-------------------------------------------------------------------------|
|-9-9-7-9----7----------------------9-9-7-9----7--------------------------|
|-9-9-7-9----7----------------------9-9-7-9----7--------------------------|
|-9-9-7-9----7----------------------9-9-7-9----7--------------------------|
|-7-7-5-7----5----------------------7-7-5-7----5--------------------------|
|-------------------------------------------------------------------------|
|Guitar II
|-------------------------------------------------------------------------|
|-------------------------------------------------------------------------|
|---------------------------------------------9-7-------------------------|
|-----------------------------------------7/9-----------------------------|
|-------------------------------------------------------------------------|
|-------------------------------------------------------------------------|
|Guitar III
|-12-12-12-12-12---12-12-12-12-12-----------------------------------------|
|-12-12-12-12-12---12-12-12-12-12-----------------------------------------|
|-------------------------------------------------------------------------|
|-------------------------------------------------------------------------|
|-------------------------------------------------------------------------|
|-------------------------------------------------------------------------|


(From "She don't lie...")
 Guitar I
                 m
|------------------|
|-9----7----5----4-|
|-9----7----5----4-|
|-9----7----5----4-|
|-7----5----3----2-|
|------------------|


 Guitar I
|-------------------------------------------------------------------------------|
|-9-9-7-9----7----------------------------9-9-7-9----7--------------------------|
|-9-9-7-9----7----------------------------9-9-7-9----7--------------------------|
|-9-9-7-9----7----------------------------9-9-7-9----7--------------------------|
|-7-7-5-7----5----------------------------7-7-5-7----5--------------------------|
|-------------------------------------------------------------------------------|
|Guitar II
|-12-12-10/12-12-12---12-12-10/12-12-12---12-12-10/12-12-12---12-12-10/12-12-12-|
|-12-12-10/12-12-12---12-12-10/12-12-12---12-12-10/12-12-12---12-12-10/12-12-12-|
|-------------------------------------------------------------------------------|
|-------------------------------------------------------------------------------|
|-------------------------------------------------------------------------------|
|-------------------------------------------------------------------------------|

(From "She don't lie...")
 Guitar I
                 m
|------------------|
|-9----7----5----4-|
|-9----7----5----4-|
|-9----7----5----4-|
|-7----5----3----2-|
|------------------|

 Guitar I
|-------------------------------------------------------------------------------|
|-9-9-7-9----7----------------------------9-9-7-9----7--------------------------|
|-9-9-7-9----7----------------------------9-9-7-9----7--------------------------|
|-9-9-7-9----7----------------------------9-9-7-9----7--------------------------|
|-7-7-5-7----5----------------------------7-7-5-7----5--------------------------|
|-------------------------------------------------------------------------------|
|Guitar II
|-12-12-10/12-12-12---12-12-10------------12-12-10/12-12-12---12-12-10/12-12-12-|
|-12-12-10/12-12-12---12-12-10------------12-12-10/12-12-12---12-12-10/12-12-12-|
|--------------------------------9----------------------------------------------|
|--------------------------------9----------------------------------------------|
|-------------------------------------------------------------------------------|
|-------------------------------------------------------------------------------|

Outro Guitar Solo:
|---------------------------------------------------------------------------------------|
|-----------------------------------15--15--12--15---------------5----5----5------5-----|
|----------------------------------------------------14-12\------7b9--7b9--7b9----7b9---|
|-12---12---14---12--14---12--/---------------------------------------------------------|
|-12---12-------------------------------------------------------------------------------|
|---------------------------------------------------------------------------------------|

|--------------------------------------------------------------------------------------------------|
|-5---5--5-----5--5----5--5----5--5\3--3-----3-----------------------------------------------------|
|------------7-------7-------7-------------4-----2p0------------------------------------------0----|
|----------------------------------------------------2--------------0-0--2--2--0------0-----0----2-|
|---------------------------------------------------------0-2-2---2--------------0h2----0h2--------|
|--------------------------------------------------------------------------------------------------|
(Fade Away)


____________________________________________________________________________________________________
____________________________________________________________________________________________________
____________________________________________________________________________________________________


Song: Wonderful Tonight

Band: Eric Clapton

Album: Slowhand


Intro (Guitar I,II and III aren't perfectly synchronized):

Guitar I
  G                 D                C                D
|---------------------------2----------------0----------------2-------|
|-----3----3------------3-----3----------1-----1---1------3-----3-----|
|---4--------4---4----2---------2------0---------0------2---------2---|
|-5-----5------5----4-----4-------4--2-----2----------4-----4-------4-|
|---------------------------------------------------------------------|
|---------------------------------------------------------------------|
|Guitar II
|---------------------------------------------------------------------|
|--------10b12b10----10b12b10--8------10b12b10--8--10-----------------|
|---------------------------------9-----------------------------------|
|---------------------------------------------------------------------|
|---------------------------------------------------------------------|
|---------------------------------------------------------------------|
|Guitar III
|---------------------------------------------------------------------|
|---------------------------------------------------------------------|
|-------------------------------------------------------4---5--/9---7-|
|---------------------------------------------------7---5---7--/10--9-|
|---------------------------------------------------9-----------------|
|---------------------------------------------------------------------|

Guitar I
  G                 D                C                D
|---------------------------2----------------0----------------2-------======|
|-----3----3------------3-----3----------1-----1---1------3-----3-----======|
|---4--------4---4----2---------2------0---------0------2---------2---======|
|-5-----5------5----4-----4-------4--2-----2----------4-----4-------4-======|
|---------------------------------------------------------------------======|
|---------------------------------------------------------------------======|
|Guitar II
|-----------------------------------------------------------------10/12--10-|
|--------10b12b10----10b12b10--8------10b12b10--8--10--/12-12/13------------|
|---------------------------------9-----------------------------------------|
|---------------------------------------------------------------------------|
|---------------------------------------------------------------------------|
|---------------------------------------------------------------------------|
|Guitar III
|---------------------------------------------------------------------======|
|---------------------------------------------------------------------======|
|-------------------------------------------------------4---5--/9---7-======|
|---------------------------------------------------7---5---7--/10--9-======|
|---------------------------------------------------9-----------------======|
|---------------------------------------------------------------------======|


(From "It's late in the evening...")
  G                 D                C                D
|---------------------------2----------------0----------------2-------|
|-----3----3------------3-----3----------1-----1---1------3-----3-----|
|---4--------4---4----2---------2------0---------0------2---------2---|
|-5-----5------5----4-----4-------4--2-----2----------4-----4-------4-|
|---------------------------------------------------------------------|
|---------------------------------------------------------------------|

(From "She puts on her make-up...")
  G                 D                C                D
|---------------------------2----------------0----------------2-------|
|-----3----3------------3-----3----------1-----1---1------3-----3-----|
|---4--------4---4----2---------2------0---------0------2---------2---|
|-5-----5------5----4-----4-------4--2-----2----------4-----4-------4-|
|---------------------------------------------------------------------|
|---------------------------------------------------------------------|

(From "And then she asks me...")
      C              D             Bm              G
|-------------3--------2-----5-----------------5----------3------|
|--------1------1--------3-----3-----------------3-----------3---|
|----------0------0--------2-----2---4---4---2-------0---------0-|
|--------------------0-----------------4---0-----------0---------|
|-0-2-3----------------------------2-----------------------------|
|--------------------------------------------------3-------------|

(From "And I say 'yes, you look wonderful tonight'")
  C                D
|--------------------------2--------|
|---------1------------3-----3------|
|-----0-----0---0----2---2-----2----|
|---2---2-----2----0-------------0--|
|-3---------------------------------|
|-----------------------------------|

Guitar I
  G                 D                C                D
|---------------------------2----------------0----------------2-------======|
|-----3----3------------3-----3----------1-----1---1------3-----3-----======|
|---4--------4---4----2---------2------0---------0------2---------2---======|
|-5-----5------5----4-----4-------4--2-----2----------4-----4-------4-======|
|---------------------------------------------------------------------======|
|---------------------------------------------------------------------======|
|Guitar II
|-----------------------------------------------------------------10/12--10-|
|--------10b12b10----10b12b10--8------10b12b10--8--10--/12-12/13------------|
|---------------------------------9-----------------------------------------|
|---------------------------------------------------------------------------|
|---------------------------------------------------------------------------|
|---------------------------------------------------------------------------|
|Guitar III
|---------------------------------------------------------------------======|
|---------------------------------------------------------------------======|
|-------------------------------------------------------4---5--/9---7-======|
|---------------------------------------------------7---5---7--/10--9-======|
|---------------------------------------------------9-----------------======|
|---------------------------------------------------------------------======|


(From "We go to a party...")
  G                 D                C                D
|---------------------------2----------------0----------------2-------|
|-----3----3------------3-----3----------1-----1---1------3-----3-----|
|---4--------4---4----2---------2------0---------0------2---------2---|
|-5-----5------5----4-----4-------4--2-----2----------4-----4-------4-|
|---------------------------------------------------------------------|
|---------------------------------------------------------------------|

(From "This beatiful lady...")
  G                 D                C                D
|---------------------------2----------------0----------------2-------|
|-----3----3------------3-----3----------1-----1---1------3-----3-----|
|---4--------4---4----2---------2------0---------0------2---------2---|
|-5-----5------5----4-----4-------4--2-----2----------4-----4-------4-|
|---------------------------------------------------------------------|
|---------------------------------------------------------------------|

(From "And then she asks me...")
      C              D             Bm      D       G
|-------------3--------2-----5-----------------5----------3------|
|--------1------1--------3-----3-----------------3-----------3---|
|----------0------0--------2-----2---4---4---2-------0---------0-|
|--------------------0-----------------4---0-----------0---------|
|-0-2-3----------------------------2-----------------------------|
|--------------------------------------------------3-------------|

(From "And I say 'yes, I feel wonderful tonight'")
 Guitar I
  C                D
|--------------------------2--------====|
|---------1------------3-----3------====|
|-----0-----0---0----2---2-----2----====|
|---2---2-----2----0-------------0--====|
|-3---------------------------------====|
|-----------------------------------====|
|Guitar II
|--------------10---10h12--10-----------|
|-------10/12------------------10h12----|
|------------------------------------12-|
|---------------------------------------|
|---------------------------------------|
|---------------------------------------|

(From "I feel wonderful...")
  C            D              Bm      D       G
|-------3--------------5------------------5---------3------|
|---------1--------3-----3------------------3----------3---|
|-----0-----0----2---2-----2------4-----2-------0--------0-|
|---2----------0----------------4---4-0-----------0--------|
|-3---------------------------2----------------------------|
|---------------------------------------------3------------|

(From "And no wonder...")
  C            D             C            D
|-------3--------------5-----------3------5--|
|---------1--------3-----3-----------1----3--|
|-----0-----0----2---2-----2-----0-----0--2--|
|---2----------0---------------2---------(0)-|
|-3--------------------------3---------------|
|--------------------------------------------|

Guitar I
  G                 D                C                D
|---------------------------2----------------0----------------2-------======|
|-----3----3------------3-----3----------1-----1---1------3-----3-----======|
|---4--------4---4----2---------2------0---------0------2---------2---======|
|-5-----5------5----4-----4-------4--2-----2----------4-----4-------4-======|
|---------------------------------------------------------------------======|
|---------------------------------------------------------------------======|
|Guitar II
|-----------------------------------------------------------------10/12--10-|
|--------10b12b10----10b12b10--8------10b12b10--8--10--/12-12/13------------|
|---------------------------------9-----------------------------------------|
|---------------------------------------------------------------------------|
|---------------------------------------------------------------------------|
|---------------------------------------------------------------------------|
|Guitar III
|---------------------------------------------------------------------======|
|---------------------------------------------------------------------======|
|-------------------------------------------------------4---5--/9---7-======|
|---------------------------------------------------7---5---7--/10--9-======|
|---------------------------------------------------9-----------------======|
|---------------------------------------------------------------------======|

Guitar I
  G                 D                C                D
|---------------------------2----------------0----------------2-------======|
|-----3----3------------3-----3----------1-----1---1------3-----3-----======|
|---4--------4---4----2---------2------0---------0------2---------2---======|
|-5-----5------5----4-----4-------4--2-----2----------4-----4-------4-======|
|---------------------------------------------------------------------======|
|---------------------------------------------------------------------======|
|Guitar II
|-----------------------------------------------------------------10/12--10-|
|--------10b12b10----10b12b10--8------10b12b10--8--10--/12-12/13------------|
|---------------------------------9-----------------------------------------|
|---------------------------------------------------------------------------|
|---------------------------------------------------------------------------|
|---------------------------------------------------------------------------|
|Guitar III
|---------------------------------------------------------------------======|
|---------------------------------------------------------------------======|
|-------------------------------------------------------4---5--/9---7-======|
|---------------------------------------------------7---5---7--/10--9-======|
|---------------------------------------------------9-----------------======|
|---------------------------------------------------------------------======|

(From "It's time to go home now...")
  G                 D                C                D
|---------------------------2----------------0----------------2-------|
|-----3----3------------3-----3----------1-----1---1------3-----3-----|
|---4--------4---4----2---------2------0---------0------2---------2---|
|-5-----5------5----4-----4-------4--2-----2----------4-----4-------4-|
|---------------------------------------------------------------------|
|---------------------------------------------------------------------|

(From "So I give her the car keys...")
  G                 D                C                D
|---------------------------2----------------0----------------2-------|
|-----3----3------------3-----3----------1-----1---1------3-----3-----|
|---4--------4---4----2---------2------0---------0------2---------2---|
|-5-----5------5----4-----4-------4--2-----2----------4-----4-------4-|
|---------------------------------------------------------------------|
|---------------------------------------------------------------------|

(From "And then I tell her...")
      C              D             Bm              G
|-------------3--------2-----5-----------------5----------3------|
|--------1------1--------3-----3-----------------3-----------3---|
|----------0------0--------2-----2---4---4---2-------0---------0-|
|--------------------0-----------------4---0-----------0---------|
|-0-2-3----------------------------2-----------------------------|
|--------------------------------------------------3-------------|

(From "I say 'My darling, you look wondeful tonight'")
|--------------------------2--------====|
|---------1------------3-----3------====|
|-----0-----0---0----2---2-----2----====|
|---2---2-----2----0-------------0--====|
|-3---------------------------------====|
|-----------------------------------====|

|-----------------------------------------|
|-10b12---10b12--10---8-------------------|
|------------------------9--7h9--7--------|
|-----------------------------------9-----|
|--------------------------------------10-|
|-----------------------------------------|

(From "I say 'My darling, you look wondeful tonight'")
|--------------------------2--------====|
|---------1------------3-----3------====|
|-----0-----0---0----2---2-----2----====|
|---2---2-----2----0-------------0--====|
|-3---------------------------------====|
|-----------------------------------====|

Outro:
Guitar I
  G                 D                C                D
|---------------------------2----------------0----------------2-------======|
|-----3----3------------3-----3----------1-----1---1------3-----3-----======|
|---4--------4---4----2---------2------0---------0------2---------2---======|
|-5-----5------5----4-----4-------4--2-----2----------4-----4-------4-======|
|---------------------------------------------------------------------======|
|---------------------------------------------------------------------======|
|Guitar II
|--------------------------10------------------10h12--10h12--10h12--12--10--|
|--------10b12b10----10b12----12b10--8-8------------------------------------|
|---------------------------------------------------------------------------|
|---------------------------------------------------------------------------|
|---------------------------------------------------------------------------|
|---------------------------------------------------------------------------|
|Guitar III
|---------------------------------------------------------------------======|
|---------------------------------------------------------------------======|
|-------------------------------------------------------4---5--/9---7-======|
|---------------------------------------------------7---5---7--/10--9-======|
|---------------------------------------------------9-----------------======|
|---------------------------------------------------------------------======|

Guitar I
  G                 D                C                D
|---------------------------2----------------0----------------2-------======|
|-----3----3------------3-----3----------1-----1---1------3-----3-----======|
|---4--------4---4----2---------2------0---------0------2---------2---======|
|-5-----5------5----4-----4-------4--2-----2----------4-----4-------4-======|
|---------------------------------------------------------------------======|
|---------------------------------------------------------------------======|
|Guitar II
|-----------------------------------------------------------------10/12--10-|
|--------10b12b10----10b12b10--8------10b12b10--8--10--/12-12/13------------|
|---------------------------------9-----------------------------------------|
|---------------------------------------------------------------------------|
|---------------------------------------------------------------------------|
|---------------------------------------------------------------------------|
|Guitar III
|---------------------------------------------------------------------======|
|---------------------------------------------------------------------======|
|-------------------------------------------------------4---5--/9---7-======|
|---------------------------------------------------7---5---7--/10--9-======|
|---------------------------------------------------9-----------------======|
|---------------------------------------------------------------------======|


____________________________________________________________________________________________________
____________________________________________________________________________________________________
____________________________________________________________________________________________________


Song: Promises

Band: Eric Clapton

Album: Backless


Intro:
  G
|---------------------------------------------------------|
|---------------------------------------------------------|
|---------------------------------------------------------|
|---------------------------------------------------------|
|---------------------------------------------------------|
|-3--3-3-3--3-3-3--3-3-3--3-3-3--3-3-3--3-3-3--3-3-3--3-3-|

G
I don't care if you never come home

C
I don't mind if you just 

        G
keep on rollin' away on a distant sea

         D                                 G
'Cause I don't love you and you don't love me


    G
The cause of camotion when you come to town

    C
You give them  a smile and they melt

       G
Having love as a friend is all good and fine

      D                                   G
But I don't like yours and you don't like mine

|---------15-------14--15------------|
|-------------------------15---12/15-|
|-17b19------------------------------|
|------------------------------------|
|------------------------------------|
|------------------------------------|

|---------15-------14--15------------|
|-------------------------15---12/15-|
|-17b19------------------------------|
|------------------------------------|
|------------------------------------|
|------------------------------------|


G
I don't care what you do when I go

C
I don't care how you get your delights

            G
'Cause I'll leave you alone and I'll just let it be

         D                                 G
'Cause I don't love you and you don't love me


G                C         Bm
I got a problem, can you relate?

Am            G
I got a woman callin love hate

G               C               Bm
Even in dought, we'll always be friends

Am                         G
How could we know that the promises end


|---------15-------14--15------------|
|-------------------------15---12/15-|
|-17b19------------------------------|
|------------------------------------|
|------------------------------------|
|------------------------------------|

|---------15-------14--15------------|
|-------------------------15---12/15-|
|-17b19------------------------------|
|------------------------------------|
|------------------------------------|
|------------------------------------|


G
I try to love you for years upon years

C
You refuse to take for real

     G
It's time you saw what I want you to see

    D                                G
I'd still love you if you just liked me


G                C         Bm
I got a problem, can you relate?

Am            G
I got a woman callin love hate

G               C               Bm
Even in dought, we'll always be friends

Am                         G
How could we know that the promises end


Outro:
|---------15-------14--15------------|
|-------------------------15---12/15-|
|-17b19------------------------------|
|------------------------------------|
|------------------------------------|
|------------------------------------|

|---------15-------14--15------------|
|-------------------------15---12/15-|
|-17b19------------------------------|
|------------------------------------|
|------------------------------------|
|------------------------------------|

|---------15-------14--15------------|
|-------------------------15---12/15-|
|-17b19------------------------------|
|------------------------------------|
|------------------------------------|
|------------------------------------|

|---------15-------14--15------------|
|-------------------------15---12/15-|
|-17b19------------------------------|
|------------------------------------|
|------------------------------------|
|------------------------------------|

|---------15-------14--15------------|
|-------------------------15---12/15-|
|-17b19------------------------------|
|------------------------------------|
|------------------------------------|
|------------------------------------|

|---------15-------14--15------------|
|-------------------------15---12/15-|
|-17b19------------------------------|
|------------------------------------|
|------------------------------------|
|------------------------------------|
(Fade Away)

____________________________________________________________________________________________________
____________________________________________________________________________________________________
____________________________________________________________________________________________________


Song: I Can't Stand It

Band: Eric Clapton

Album: Another Ticket


Intro:
|----------------------------------------------------------------------|
|------------------------3------3----------------------------------3---|
|-----------5--5--5/7----2h4~---2h4----------------5--5--5--7------2h4-|
|-----0---------------------------------------0------------------------|
|-0-3-------------------------------------0-3--------------------------|
|----------------------------------------------------------------------|



            Dm       Am                       G
You've been told, so maybe it's time that you learned

            Dm     Am                      G
You've been sold, maybe it's time that you heard


        Am               F        G
I can't stand it, you're fooling around

        Am               F        G
I can't stand it, you're running around

        Am               F        G             Am
I can't stand it, you're fooling around with my heart


       Dm       Am                  G
I'll explain, I feel like I'm being used

        Dm            Am           G
Make it plain, so you don't get confused


        Am               F        G
I can't stand it, you're fooling around

        Am               F        G
I won't stand it, you're running around

        Am               F        G             Am
I can't stand it, you're fooling around with my heart


Guitar Solo:
|--------------------------------------------------------------------------------------------------|
|--------------------------------------------------------------------------------------------------|
|-/10---10p9p7------------7--------------------7----------12b14---14b12p10-12b14--10---------------|
|--------------10--7--10-----7\5-----5-----/9-----7--5-------------------------------12------------|
|--------------------------------8------------------------------------------------------10-8-10-10-|
|--------------------------------------------------------------------------------------------------|

|------------10---------------------|
|--------10------10-----------------|
|-12b14--------------14--12--10-----|
|--------------------------------12-|
|-----------------------------------|
|-----------------------------------|

        Am               F        G
I can't stand it, you're running around

        Am               F        G
I can't stand it, you're fooling around

        Am               F        G             Am
I can't stand it, you're fooling around with my heart


     Dm    Am                     G
It's time, time for me to let you go

         Dm        Am                         G
Ain't no crime, no crime to let your feelings show


Outro:
        Am               F        G
I can't stand it, you're fooling around

        Am               F        G
I won't stand it, you're playing around

        Am               F        G
I can't stand it, you're fooling around


        Am               F        G
I can't stand it, you're running around

        Am               F        G
I can't stand it, you're fooling around

        Am               F        G
I can't stand it, you're fooling around


        Am               F        G             Am
I can't stand it, you're fooling around with my heart

        Am               F        G             Am
I can't stand it, you're fooling around with my heart


Guitar Work from 03:21 (Wah-Pedal):
|----------5-------5--------8b10---10--8--5-------------------------------------------15----------|
|--------------8-----------------------------8--8b10--10---8b10--10--------13---15b17----17b15-13-|
|-7b9--9---------------------------------------------------------------14-------------------------|
|-------------------------------------------------------------------------------------------------|
|-------------------------------------------------------------------------------------------------|
|-------------------------------------------------------------------------------------------------|

|-------15-------15--------------------------------------------------------------15-------15-|
|-15b17----15b17----13------13-15--15b17--15b17--15b17--13----------13-15--15b17----15b17----|
|----------------------14----------------------------------14----14--------------------------|
|--------------------------------------------------------------------------------------------|
|--------------------------------------------------------------------------------------------|
|--------------------------------------------------------------------------------------------|

|-------15-------15-------15------------15b17--15b17b15-12----------------------------------|
|-15b17----15b17----15b17----17b15--------------------------13------------------------------|
|----------------------------------14----------------------------14-14--------5-------------|
|-------------------------------------------------------------------------7------7\-----5-7-|
|-------------------------------------------------------------------------------------7-----|
|-------------------------------------------------------------------------------------------|

|--------15\------------|
|-15b17-----------------|
|--------------7b9b7----|
|--------------------7--|
|-----------------------|
|-----------------------|

Добавлено: 01.06.2013
Другие материалы по этой песне:
  • Аккорды и текст

Страница создана 01.06.2013
http://primanota.ru/clapton-eric/the-cream-of-clapton-chords.htm
Привет, Гость.
Предлагаем пройти революционный курс по гитаре.
Подарок от PrimaNota.Ru, забирай!