PrimaNota.ru - самый крупный в мире бесплатный архив песенных текстов, аккордов, табулатур и нот


Clapton, Eric - Sleeping In The Ground - текст песни, бас-таба, видео

Регистрация Запомнить меня
Войти через:  Facebook Google Twitter Vk Yandex Mail.ru

Clapton, Eric - Sleeping In The Ground - текст песни, бас-таба, видео

Печатать
Просмотров: 106
Eric Clapton & Steve Winwood
(Live Madison Square Garden - 2009)

Sleeping in the ground

Bass Tabs

Tuning : EADG
Tempo: 91 bpm 
Key: E

INTRO:                      
G|--------------------|-
D|----   GUITARS  ----|-
A|--------------------|- 
E|--------------------|-

(Bass starts: 00:05)
G|----------|-----------------|----------|-
D|-7-8-9----|-----------------|----------|-
A|-------7--|-7/8-8/----------|----------|- 
E|----------|-------9-9/8-8/7-|-5-6-7g---|-

VERSE1: 00:11
G|----------6-|------------||-----------6-9-6------|-
D|----6-6-9---|----------4-||----6-6-9---------9-6-|-
A|-67---------|----4-4-7---||-67-------------------|- 
E|------------|-45---------||----------------------|-
I would rather see you sleepin' in the ground

G|------------|------------||-----------6--9-9/7-7/6-6/--|-
D|----------4-|----------4-||----6-6-9-----------------9-|-
A|----4-4-7---|----4-4-7---||-67-------------------------|- 
E|-45---------|-45---------||----------------------------|-
I would rather see you sleepin' in the ground

G|------------|------------||-----------6g--9-6-----|-
D|----------6-|----------4-||----6-6-9----------9g--|-
A|----6-6-9---|----4-4-7---||-67--------------------|- 
E|-67---------|-45---------||-----------------------|-
Than to stay around here if you're gonna pull me down


VERSE2: 00:44
G|----------6-|------------||-----------6-9-6------|-
D|----6-6-9---|----------4-||----6-6-9---------9-6-|-
A|-67---------|----4-4-7---||-67-------------------|- 
E|------------|-45---------||----------------------|-
Well I give you all my money, everything I own

G|------------|------------||-----------6--9-9/7-7/6-6/--|-
D|----------4-|----------4-||----6-6-9-----------------9-|-
A|----4-4-7---|----4-4-7---||-67-------------------------|- 
E|-45---------|-45---------||----------------------------|-
Well I give you all my money, everything I own

G|------------|------------||-----------6g--9-6-----|-
D|----------6-|----------4-||----6-6-9----------9g--|-
A|----6-6-9---|----4-4-7---||-67--------------------|- 
E|-67---------|-45---------||-----------------------|-
And some day I'm gonna get lucky
And down the road you know I'm gone


INSTRUMENTAL: 01:16  (PLAY X4)
G|----------6-|------------||-----------6-9-6------|-
D|----6-6-9---|----------4-||----6-6-9---------9-6-|-
A|-67---------|----4-4-7---||-67-------------------|- 
E|------------|-45---------||----------------------|-

G|------------|------------||-----------6--9-9/7-7/6-6/--|-
D|----------4-|----------4-||----6-6-9-----------------9-|-
A|----4-4-7---|----4-4-7---||-67-------------------------|- 
E|-45---------|-45---------||----------------------------|-

G|------------|------------||---------------6-9-----|-
D|----------6-|----------4-||----6-6-7-8-9------9g--|-
A|----6-6-9---|----4-4-7---||-67--------------------|- 
E|-67---------|-45---------||-----------------------|-


VERSE3: 03:22
G|----------6-|------------||-----------6-9-6------|-
D|----6-6-9---|----------4-||----6-6-9---------9-6-|-
A|-67---------|----4-4-7---||-67-------------------|- 
E|------------|-45---------||----------------------|-
I would rather see you sleepin' in the ground

G|------------|------------||-----------6--9-9/7-7/6-6/--|-
D|----------4-|----------4-||----6-6-9-----------------9-|-
A|----4-4-7---|----4-4-7---||-67-------------------------|- 
E|-45---------|-45---------||----------------------------|-
I would rather see you sleepin' in the ground

G|------------|------------||-----------6g--9-6-----|-
D|----------6-|----------4-||----6-6-9----------9g--|-
A|----6-6-9---|----4-4-7---||-67--------------------|- 
E|-67---------|-45---------||-----------------------|-
Than to stay around here if you're gonna pull me down


VERSE4: 03:54
G|----------6-|------------||-----------6-9-6------|-
D|----6-6-9---|----------4-||----6-6-9---------9-6-|-
A|-67---------|----4-4-7---||-67-------------------|- 
E|------------|-45---------||----------------------|-
You know I give you all my money
Yeah little girl, everything I own
G|------------|------------||-----------6--9-9/7-7/6-6/--|-
D|----------4-|----------4-||----6-6-9-----------------9-|-
A|----4-4-7---|----4-4-7---||-67-------------------------|- 
E|-45---------|-45---------||----------------------------|-
Well I give you all my money, everything I own

G|------------|------------||-----------------------||
D|----------6-|------------||----6-6-7-8-9---7-6----||
A|----6-6-9---|------------||-67-----------------7g-|| 
E|-67---------|-45g--------||-----------------------||
Well today I'm gonna get lucky
And down the road you know I'm gone


End: 04:51



Tablature Legend:  
| S  slap 
| P  pop 
| x  mute note 
| /  slide up 
| \  slide down 
| h  hammer-on 
| p  pull-off 
| g  grace note 
| ~  vibrato 
| ^  brush up


E (Ref scale)
G|-------6-9-6------||-------6-9-6------|-
D|---6-9-------9-6--||---6-9-------9-6--|-
A|-7----------------||-7----------------|- 
E|------------------||------------------|-

G|------------------||------------------|-
D|-------4-7-4------||-------4-7-4------|-
A|---4-7-------7-4--||---4-7-------7-4--|- 
E|-5----------------||-5----------------|-

G|-------6-9-6------||-------6-9-6------|-
D|---6-9-------9-6--||---6-9-------9-6--|-
A|-7----------------||-7----------------|- 
E|------------------||------------------|-

G|------------------||------------------|-
D|-------6-9-6------||-------6-9-6------|-
A|---6-9-------9-6--||---6-9-------9-6--|- 
E|-7----------------||-7----------------|-

G|------------------||------------------|-
D|-------4-7-4------||-------4-7-4------|-
A|---4-7-------7-4--||---4-7-------7-4--|- 
E|-5----------------||-5----------------|-

G|-------6-9-6------||-------6-9-6------|-
D|---6-9-------9-6--||---6-9-------9-6--|-
A|-7----------------||-7----------------|- 
E|------------------||------------------|-
Добавлено: 26.08.2015
Другие материалы по этой песне:

Страница создана 08.03.2012
http://primanota.ru/clapton-eric/sleeping-in-the-ground-chords.htm
Привет, Гость.
Предлагаем пройти революционный курс по гитаре.
Подарок от PrimaNota.Ru, забирай!