PrimaNota.ru - самый крупный в мире бесплатный архив песенных текстов, аккордов, табулатур и нот


Clapton, Eric - Stop Breakin' Down Blues - текст песни, таба, видео

Регистрация Запомнить меня
Войти через:  Facebook Google Twitter Vk Yandex Mail.ru

Clapton, Eric - Stop Breakin' Down Blues - текст песни, таба, видео

Печатать
Просмотров: 160
Guitar I



                      PM    PM   PM   PM   PM                             
     H        Q    E  E     Q    Q    Q    Q       Q    Q    E  E  E  E   
E||----------------------|----------------------|------------------------|
B||----------------------|----------------------|------------------------|
G||----------------------|----------------------|--2----2----2--------2--|
D||-------------------2--|----------------------|--2----2----2--------2--|
A||----------------------|--0-------------------|--0----0----0--0--3-----|
E||----------------------|-------3----2----0----|------------------------|


   Riff A                                                
            PM PM       PM             PM PM      PM     
   E     E  E  E  Q     E  E     E  E  E  E  Q    E  E   
------------------------------|-------------------------|
------------------------------|-------------------------|
--(2)----2--------------------|-----2-------------------|
--(2)-------------5~-------2--|--------------2-------2--|
------------3--4--------3-----|--------3--4-------3-----|
------------------------------|-------------------------|


        PM PM    PM PM             PM PM       PM     
  E  E  E  E  E  E  E  E     E  E  E  E  Q     E  E   
--------------------------|--------------------------|
--------------------------|--------------------------|
-----2--------------------|-----2-----------------2--|
--------------5--------2--|--------------2~----------|
--------3--4-----3--4-----|--------3--4--------3-----|
--------------------------|--------------------------|


        PM PM       PM             PM PM       PM     
  E  E  E  E  Q     E  E     E  E  E  E  Q     E  E   
--------------------------|--------------------------|
--------------------------|--------------------------|
-----2--------5~-------2--|-----2--------2~----------|
--------3--4--------3-----|--------3--4--------4--2--|
--------------------------|-----------------------0--|
--------------------------|--------------------------|


        PM PM    PM PM             PM PM       PM     
  E  E  E  E  E  E  E  E     E  E  E  E  Q     E  E   
--------------------------|--------------------------|
--------------------------|--------------------------|
--------------------------|-----2--------------------|
-----2--------2--------2--|-----2--------2~-------2--|
--------3--4-----3--4-----|--------3--4--------4-----|
--------------------------|--------------------------|


        PM PM       PM             PM PM                     PM PM              
  E  E  E  E  E  E  E  E     E  E  E  E  Q    E  E     E  E  E  E  E  E  E  E   
--------------------------|-------------------------|--------------------------|
--------------------------|-------------------------|--------------------------|
--------------------------|-----2--------2----------|-----2-----------------2--|
-----------------------2--|--------3--4--0----------|--------------5--5-----2--|
-----2--------5--5--------|-------------------3--0--|--------3--4--------4-----|
--------3--4--------4-----|-------------------------|--------------------------|


           End Riff A                 Riff A                      
        PM PM               PM                 PM PM       PM     
  E  E  E  E          E  E  E  E      E     E  E  E  Q     E  E   
----------------------------------|------------------------------|
----------------------------------|------------------------------|
--L--2-------------------------2--|--(2)----2--------------------|
--L-------------------2--4-----2--|--(2)-------------5~-------2--|
--------3--4----------------3-----|------------3--4--------3-----|
----------------------------------|------------------------------|


        PM PM      PM             PM PM    PM PM             PM PM       PM     
  E  E  E  E  Q    E  E     E  E  E  E  E  E  E  E     E  E  E  E  Q     E  E   
-------------------------|--------------------------|--------------------------|
-------------------------|--------------------------|--------------------------|
-----2-------------------|-----2--------------------|-----2-----------------2--|
--------------2-------2--|--------------5--------2--|--------------2~----------|
--------3--4-------3-----|--------3--4-----3--4-----|--------3--4--------3-----|
-------------------------|--------------------------|--------------------------|


        PM PM       PM             PM PM       PM     
  E  E  E  E  Q     E  E     E  E  E  E  Q     E  E   
--------------------------|--------------------------|
--------------------------|--------------------------|
-----2--------5~-------2--|-----2--------2~----------|
--------3--4--------3-----|--------3--4--------4--2--|
--------------------------|-----------------------0--|
--------------------------|--------------------------|


        PM PM    PM PM             PM PM       PM     
  E  E  E  E  E  E  E  E     E  E  E  E  Q     E  E   
--------------------------|--------------------------|
--------------------------|--------------------------|
--------------------------|-----2--------------------|
-----2--------2--------2--|-----2--------2~-------2--|
--------3--4-----3--4-----|--------3--4--------4-----|
--------------------------|--------------------------|


        PM PM       PM             PM PM                     PM PM              
  E  E  E  E  E  E  E  E     E  E  E  E  Q    E  E     E  E  E  E  E  E  E  E   
--------------------------|-------------------------|--------------------------|
--------------------------|-------------------------|--------------------------|
--------------------------|-----2--------2----------|-----2-----------------2--|
-----------------------2--|--------3--4--0----------|--------------5--5-----2--|
-----2--------5--5--------|-------------------3--0--|--------3--4--------4-----|
--------3--4--------4-----|-------------------------|--------------------------|


           End Riff A                 Riff A                      
        PM PM               PM                 PM PM       PM     
  E  E  E  E          E  E  E  E      E     E  E  E  Q     E  E   
----------------------------------|------------------------------|
----------------------------------|------------------------------|
--L--2-------------------------2--|--(2)----2--------------------|
--L-------------------2--4-----2--|--(2)-------------5~-------2--|
--------3--4----------------3-----|------------3--4--------3-----|
----------------------------------|------------------------------|


        PM PM      PM             PM PM    PM PM             PM PM       PM     
  E  E  E  E  Q    E  E     E  E  E  E  E  E  E  E     E  E  E  E  Q     E  E   
-------------------------|--------------------------|--------------------------|
-------------------------|--------------------------|--------------------------|
-----2-------------------|-----2--------------------|-----2-----------------2--|
--------------2-------2--|--------------5--------2--|--------------2~----------|
--------3--4-------3-----|--------3--4-----3--4-----|--------3--4--------3-----|
-------------------------|--------------------------|--------------------------|


        PM PM       PM             PM PM       PM     
  E  E  E  E  Q     E  E     E  E  E  E  Q     E  E   
--------------------------|--------------------------|
--------------------------|--------------------------|
-----2--------5~-------2--|-----2--------2~----------|
--------3--4--------3-----|--------3--4--------4--2--|
--------------------------|-----------------------0--|
--------------------------|--------------------------|


        PM PM    PM PM             PM PM       PM     
  E  E  E  E  E  E  E  E     E  E  E  E  Q     E  E   
--------------------------|--------------------------|
--------------------------|--------------------------|
--------------------------|-----2--------------------|
-----2--------2--------2--|-----2--------2~-------2--|
--------3--4-----3--4-----|--------3--4--------4-----|
--------------------------|--------------------------|


        PM PM       PM             PM PM                     PM PM              
  E  E  E  E  E  E  E  E     E  E  E  E  Q    E  E     E  E  E  E  E  E  E  E   
--------------------------|-------------------------|--------------------------|
--------------------------|-------------------------|--------------------------|
--------------------------|-----2--------2----------|-----2-----------------2--|
-----------------------2--|--------3--4--0----------|--------------5--5-----2--|
-----2--------5--5--------|-------------------3--0--|--------3--4--------4-----|
--------3--4--------4-----|-------------------------|--------------------------|


           End Riff A                 Riff A                      
        PM PM               PM                 PM PM       PM     
  E  E  E  E          E  E  E  E      E     E  E  E  Q     E  E   
----------------------------------|------------------------------|
----------------------------------|------------------------------|
--L--2-------------------------2--|--(2)----2--------------------|
--L-------------------2--4-----2--|--(2)-------------5~-------2--|
--------3--4----------------3-----|------------3--4--------3-----|
----------------------------------|------------------------------|


        PM PM      PM             PM PM    PM PM             PM PM       PM     
  E  E  E  E  Q    E  E     E  E  E  E  E  E  E  E     E  E  E  E  Q     E  E   
-------------------------|--------------------------|--------------------------|
-------------------------|--------------------------|--------------------------|
-----2-------------------|-----2--------------------|-----2-----------------2--|
--------------2-------2--|--------------5--------2--|--------------2~----------|
--------3--4-------3-----|--------3--4-----3--4-----|--------3--4--------3-----|
-------------------------|--------------------------|--------------------------|


        PM PM       PM             PM PM       PM     
  E  E  E  E  Q     E  E     E  E  E  E  Q     E  E   
--------------------------|--------------------------|
--------------------------|--------------------------|
-----2--------5~-------2--|-----2--------2~----------|
--------3--4--------3-----|--------3--4--------4--2--|
--------------------------|-----------------------0--|
--------------------------|--------------------------|


        PM PM    PM PM             PM PM       PM     
  E  E  E  E  E  E  E  E     E  E  E  E  Q     E  E   
--------------------------|--------------------------|
--------------------------|--------------------------|
--------------------------|-----2--------------------|
-----2--------2--------2--|-----2--------2~-------2--|
--------3--4-----3--4-----|--------3--4--------4-----|
--------------------------|--------------------------|


        PM PM       PM             PM PM                     PM PM              
  E  E  E  E  E  E  E  E     E  E  E  E  Q    E  E     E  E  E  E  E  E  E  E   
--------------------------|-------------------------|--------------------------|
--------------------------|-------------------------|--------------------------|
--------------------------|-----2--------2----------|-----2-----------------2--|
-----------------------2--|--------3--4--0----------|--------------5--5-----2--|
-----2--------5--5--------|-------------------3--0--|--------3--4--------4-----|
--------3--4--------4-----|-------------------------|--------------------------|


           End Riff A                 Riff A                      
        PM PM               PM                 PM PM       PM     
  E  E  E  E          E  E  E  E      E     E  E  E  Q     E  E   
----------------------------------|------------------------------|
----------------------------------|------------------------------|
--L--2-------------------------2--|--(2)----2--------------------|
--L-------------------2--4-----2--|--(2)-------------5~-------2--|
--------3--4----------------3-----|------------3--4--------3-----|
----------------------------------|------------------------------|


        PM PM      PM             PM PM    PM PM             PM PM       PM     
  E  E  E  E  Q    E  E     E  E  E  E  E  E  E  E     E  E  E  E  Q     E  E   
-------------------------|--------------------------|--------------------------|
-------------------------|--------------------------|--------------------------|
-----2-------------------|-----2--------------------|-----2-----------------2--|
--------------2-------2--|--------------5--------2--|--------------2~----------|
--------3--4-------3-----|--------3--4-----3--4-----|--------3--4--------3-----|
-------------------------|--------------------------|--------------------------|


        PM PM       PM             PM PM       PM     
  E  E  E  E  Q     E  E     E  E  E  E  Q     E  E   
--------------------------|--------------------------|
--------------------------|--------------------------|
-----2--------5~-------2--|-----2--------2~----------|
--------3--4--------3-----|--------3--4--------4--2--|
--------------------------|-----------------------0--|
--------------------------|--------------------------|


        PM PM    PM PM             PM PM       PM     
  E  E  E  E  E  E  E  E     E  E  E  E  Q     E  E   
--------------------------|--------------------------|
--------------------------|--------------------------|
--------------------------|-----2--------------------|
-----2--------2--------2--|-----2--------2~-------2--|
--------3--4-----3--4-----|--------3--4--------4-----|
--------------------------|--------------------------|


        PM PM       PM             PM PM                     PM PM              
  E  E  E  E  E  E  E  E     E  E  E  E  Q    E  E     E  E  E  E  E  E  E  E   
--------------------------|-------------------------|--------------------------|
--------------------------|-------------------------|--------------------------|
--------------------------|-----2--------2----------|-----2-----------------2--|
-----------------------2--|--------3--4--0----------|--------------5--5-----2--|
-----2--------5--5--------|-------------------3--0--|--------3--4--------4-----|
--------3--4--------4-----|-------------------------|--------------------------|


           End Riff A                 Riff A                      
        PM PM               PM                 PM PM       PM     
  E  E  E  E          E  E  E  E      E     E  E  E  Q     E  E   
----------------------------------|------------------------------|
----------------------------------|------------------------------|
--L--2-------------------------2--|--(2)----2--------------------|
--L-------------------2--4-----2--|--(2)-------------5~-------2--|
--------3--4----------------3-----|------------3--4--------3-----|
----------------------------------|------------------------------|


        PM PM      PM             PM PM    PM PM             PM PM       PM     
  E  E  E  E  Q    E  E     E  E  E  E  E  E  E  E     E  E  E  E  Q     E  E   
-------------------------|--------------------------|--------------------------|
-------------------------|--------------------------|--------------------------|
-----2-------------------|-----2--------------------|-----2-----------------2--|
--------------2-------2--|--------------5--------2--|--------------2~----------|
--------3--4-------3-----|--------3--4-----3--4-----|--------3--4--------3-----|
-------------------------|--------------------------|--------------------------|


        PM PM       PM             PM PM       PM     
  E  E  E  E  Q     E  E     E  E  E  E  Q     E  E   
--------------------------|--------------------------|
--------------------------|--------------------------|
-----2--------5~-------2--|-----2--------2~----------|
--------3--4--------3-----|--------3--4--------4--2--|
--------------------------|-----------------------0--|
--------------------------|--------------------------|


        PM PM    PM PM             PM PM       PM     
  E  E  E  E  E  E  E  E     E  E  E  E  Q     E  E   
--------------------------|--------------------------|
--------------------------|--------------------------|
--------------------------|-----2--------------------|
-----2--------2--------2--|-----2--------2~-------2--|
--------3--4-----3--4-----|--------3--4--------4-----|
--------------------------|--------------------------|


        PM PM       PM             PM PM                                     
  E  E  E  E  E  E  E  E     E  E  E  E  Q    E  E     E  Q.     Q    E  E   
--------------------------|-------------------------|-----5------5----------|
--------------------------|-------------------------|-----------------------|
--------------------------|-----2--------2----------|-----------------------|
-----------------------2--|--------3--4--0----------|-----5------4-------3--|
-----2--------5--5--------|-------------------3--0--|-----------------------|
--------3--4--------4-----|-------------------------|-----------------------|


  E  E  E  E  E  Q.               
------------------------|-------||
------------------------|-------||
--------1--2------------|-------||
--2-----1--2-----2------|-------||
-----0-----------0------|-------||
------------------------|-------||










Guitar II



     W                   H        Q    E  E     W                 
E||-------------------|----------------------|-------------------|
B||-------------------|----------------------|-------------------|
G||-------------------|-------------------2--|-------------------|
D||-------------------|----------------------|--2----------------|
A||-------------------|----------------------|--0----------------|
E||-------------------|----------------------|-------------------|


  W                   H        Q    E  E     W                 
-------------------|----------------------|-------------------|
-------------------|----------------------|-------------------|
-------------------|-------------------2--|--L----------------|
--L----------------|----------------4-----|-------------------|
--L----------------|----------------------|-------------------|
-------------------|----------------------|-------------------|


  H        H           Q     E  E   E   E  Q        E  E   E   E  Q    Q     
--------------------|---------------------------|---------------------------|
--------------------|-------10-----10--10-------|--10-----10--10--L---------|
--L-----------------|-------11-----11--11-------|--11-----11--11--L---------|
--------------------|---------------------------|---------------------------|
--------------------|---------------------------|---------------------------|
--------------------|---------------------------|---------------------------|


  E  E  E  E  E  E  Q       E  E  E  E  Q    Q       Q    E  E  E  E  Q     
-------------------------|------------------------|-------0--------0-------|
--------8-----8--8-------|--8-----8--8--L---------|-------3-----3--3-------|
--------9-----9--9-------|--9-----9--9--L---------|-------1-----1----------|
--2----------------------|------------------------|------------------------|
--0----------------------|------------------------|------------------------|
-------------------------|------------------------|------------------------|


  E  E  E  E  Q    Q       Q     Q    Q       E  E   
------------------------|-------/5----5\------------|
--7--------7--L---------|-------/5----5\------------|
--5--------5--L---------|-------------------5g6-----|
------------------------|------------------------7--|
------------------------|---------------------------|
------------------------|---------------------------|


  E  E   E  E   Q      E  E     Q    Q    H           Q    E   E  E  E  Q     
--------/5--5--(5)\----------|---------------------|-------------------------|
-----5--/5--5--(5)\----------|---------------------|-------8---------8-------|
--------------------------2--|--L------------------|-------9---------9-------|
--L-----------------------2--|--L------------------|----------11-------------|
-----------------------3-----|--0------------------|-------------------------|
-----------------------------|---------------------|-------------------------|


  Q    E   E  E  E  Q       E   E  E  E  E  E  Q       Q    E  E  E  E  Q     
-------------------------|--------------------------|------------------------|
-------8---------8-------|--8------8--8--L--8-------|-------7-----7--7-------|
-------9---------9-------|--9------9--9--L--9-------|-------5-----5--5-------|
----------11-------------|-----11-------------------|------------------------|
-------------------------|--------------------------|------------------------|
-------------------------|--------------------------|------------------------|


  Q    E  E  E  E  Q       Q    E  E  E  Q    E     E  E  E  E  E  E  Q      
------------------------|------------------------|--------------------------|
-------7-----7--7-------|-------8-----7--8-------|--8-----7--8--L--8--------|
-------5-----5--5-------|-------9-----8--9-------|--9-----8--9--L--9--------|
------------------------|------------------------|--------------------------|
------------------------|------------------------|--------------------------|
------------------------|------------------------|--------------------3b----|


  E  E  E  E  E  E  Q       Q    E  E  E  E  Q     
--------0-----------0----|------------------------|
-----3--3--3-----3-------|-------7--7-----7-------|
--------1--1-----1-------|-------5--------5-------|
-------------------------|------------------------|
-------------------------|------------------------|
--0-----------0----------|------------------------|


  Q      E  E  Q       E  E     E  E   E  E  E  E  E  E   
-------3g5--5--5\------------|--------/5--5--L--5--------|
-------3g5-----5\------------|-----5------5--L--5--------|
---------------------5g6-----|------------------------2--|
--------------------------7--|--L---------------------2--|
-----------------------------|---------------------3-----|
-----------------------------|---------------------------|


  Riff B                                                 
  E      E  E   E  E  E  Q       E  E  E  E  Q    E  E   
------------------------------|-------------------------|
------------8------8--8-------|--8--------8--L----8-----|
------------9------9----------|--9----------------9-----|
---------------11-------------|-------------------------|
--0---------------------------|-------------------------|
------------------------------|-------------------------|


  Q    E  E  E  E  Q       E  E  E  E  E  E  Q       Q    E  E  E  E  Q     
------------------------|-------------------------|------------------------|
-------8-----8--8-------|--8-----8--8--L--8-------|-------7-----7--7-------|
-------9-----9--9-------|--9-----9--9--L--9-------|-------5-----5--5-------|
------------------------|-------------------------|------------------------|
------------------------|-------------------------|------------------------|
------------------------|-------------------------|------------------------|


  E  E  E  E  Q    E  E     Q    E  E  E  E  Q       E  E  E  E  Q    Q      
-------------------------|------------------------|-------------------------|
--7-----7--7--L----7-----|-------8-----8--8-------|--8--------8--L----------|
--5-----5--5--L----5-----|-------9--9--9--9-------|--9-----9--9--L----------|
-------------------------|------------------------|-------------------------|
-------------------------|------------------------|-------------------------|
-------------------------|------------------------|-------------------3b----|


  E  E  E  E  E  E  Q       E  E  E  E  E  E  E  E   
--------0--------0-------|--------------------------|
--------3-----3----------|--7-----7--7--L--7--7-----|
--------1-----1----------|--5-----5--5--L-----5-----|
--------2-----2----------|--------------------------|
-------------------------|--------------------------|
--0----------------------|--------------------------|


                                          End Riff B               
  Q     E  E  E   E    E  E     E  E   E  E          Q     Q       
-------/5--5--5\--0----------|-----0--/5--5----------L----(5)\----|
-------/5-----5\-----1g2-----|-----0--/5--5----------L----(5)\----|
--------------------------2--|------------------------------------|
-----------------------------|--2---------------------------------|
-----------------------------|------------------------------------|
-----------------------------|------------------------------------|


                tr                                    
  Q    E  E  E  Q.           E  E  E    E  Q    Q     
-------------7------------|--------7-----------------|
-------7-----7------------|--7-----7-----------------|
-------------7--5(6)------|--7-----7--5g6--L---------|
--------------------------|--------------------------|
--------------------------|--------------------------|
--------------------------|--------------------------|


  Q    E  E  E    Q    E     E  E  E    E  Q    Q       Q    E  E  E  Q    E   
-------7-----7------------|--7-----7-----------------|------------------------|
-------7-----7---------5--|--7-----7-----------------|-------7-----7--5----7--|
-------7-----7--5g6-------|--7-----7--5g6--L---------|-------7-----7--5----7--|
--------------------------|--------------------------|------------------------|
--------------------------|--------------------------|------------------------|
--------------------------|--------------------------|------------------------|


  E  E  E  E  Q.     E     Q    E  E  E  Q    E     E  E  E    E  E  E  E  E   
---------------------0--|-------------7--5-------|----------------------------|
--7-----7--5--L------0--|-------7-----7--5-------|--7-----7-------------------|
--7-----7--5--L---------|------------------------|--7-----7--5g6--L-----------|
------------------------|---------------------7--|-------------------7--5--7--|
------------------------|------------------------|----------------------------|
------------------------|------------------------|----------------------------|


  Q    E  E  E  E  Q       Q     E  E  Q    E   E     E  E  Q    Q    Q     
----------------7-------|--8b----8-----------------|-----0-----------------|
-------5-----5--5-------|--7b----7--5--------------|-----------------------|
----------7-----7-------|--------------7----5b-----|-----------------------|
------------------------|-----------------------7--|--L-----5----4----3----|
--7---------------------|--------------------------|-----------------------|
------------------------|--------------------------|-----------------------|


                           Riff B                       
  E  E  E  E  Q    Q       E      E  E   E  E  E  Q     
------------------------|------------------------------|
--------2--2--L---------|------------8------8--8-------|
-----2--2--2--L---------|------------9------9----------|
------------------------|---------------11-------------|
--0---------------------|--0---------------------------|
------------------------|------------------------------|


  E  E  E  E  Q    E  E     Q    E  E  E  E  Q       E  E  E  E  E  E  Q     
-------------------------|------------------------|-------------------------|
--8--------8--L----8-----|-------8-----8--8-------|--8-----8--8--L--8-------|
--9----------------9-----|-------9-----9--9-------|--9-----9--9--L--9-------|
-------------------------|------------------------|-------------------------|
-------------------------|------------------------|-------------------------|
-------------------------|------------------------|-------------------------|


  Q    E  E  E  E  Q       E  E  E  E  Q    E  E     Q    E  E  E  E  Q     
------------------------|-------------------------|------------------------|
-------7-----7--7-------|--7-----7--7--L----7-----|-------8-----8--8-------|
-------5-----5--5-------|--5-----5--5--L----5-----|-------9--9--9--9-------|
------------------------|-------------------------|------------------------|
------------------------|-------------------------|------------------------|
------------------------|-------------------------|------------------------|


  E  E  E  E  Q    Q        E  E  E  E  E  E  Q       E  E  E  E  E  E  E  E   
-------------------------|--------0--------0-------|--------------------------|
--8--------8--L----------|--------3-----3----------|--7-----7--7--L--7--7-----|
--9-----9--9--L----------|--------1-----1----------|--5-----5--5--L-----5-----|
-------------------------|--------2-----2----------|--------------------------|
-------------------------|-------------------------|--------------------------|
-------------------3b----|--0----------------------|--------------------------|


                                          End Riff B               
  Q     E  E  E   E    E  E     E  E   E  E          Q     Q       
-------/5--5--5\--0----------|-----0--/5--5----------L----(5)\----|
-------/5-----5\-----1g2-----|-----0--/5--5----------L----(5)\----|
--------------------------2--|------------------------------------|
-----------------------------|--2---------------------------------|
-----------------------------|------------------------------------|
-----------------------------|------------------------------------|


  Riff B                                                 
  E      E  E   E  E  E  Q       E  E  E  E  Q    E  E   
------------------------------|-------------------------|
------------8------8--8-------|--8--------8--L----8-----|
------------9------9----------|--9----------------9-----|
---------------11-------------|-------------------------|
--0---------------------------|-------------------------|
------------------------------|-------------------------|


  Q    E  E  E  E  Q       E  E  E  E  E  E  Q       Q    E  E  E  E  Q     
------------------------|-------------------------|------------------------|
-------8-----8--8-------|--8-----8--8--L--8-------|-------7-----7--7-------|
-------9-----9--9-------|--9-----9--9--L--9-------|-------5-----5--5-------|
------------------------|-------------------------|------------------------|
------------------------|-------------------------|------------------------|
------------------------|-------------------------|------------------------|


  E  E  E  E  Q    E  E     Q    E  E  E  E  Q       E  E  E  E  Q    Q      
-------------------------|------------------------|-------------------------|
--7-----7--7--L----7-----|-------8-----8--8-------|--8--------8--L----------|
--5-----5--5--L----5-----|-------9--9--9--9-------|--9-----9--9--L----------|
-------------------------|------------------------|-------------------------|
-------------------------|------------------------|-------------------------|
-------------------------|------------------------|-------------------3b----|


  E  E  E  E  E  E  Q       E  E  E  E  E  E  E  E     E  Q.     Q    E  E   
--------0--------0-------|--------------------------|-----5------5----------|
--------3-----3----------|--7-----7--7--L--7--7-----|-----------------------|
--------1-----1----------|--5-----5--5--L-----5-----|-----------------------|
--------2-----2----------|--------------------------|-----5------4-------3--|
-------------------------|--------------------------|-----------------------|
--0----------------------|--------------------------|-----------------------|


  E  E  E  E  E    Q.               
--------------------------|-------||
-----------------/10------|-------||
--------1--2--------------|-------||
--2-----1--2--------------|-------||
-----0--------------------|-------||
--------------------------|-------||




Duration Legend
---------------
W - whole
H - half
Q - quarter
E - 8th
S - 16th
T - 32nd
X - 64th
. - note dotted
|-n-|  - n-tuplets


Tablature Legend
----------------
L - tied note
x - dead note
g - grace note
(n) - ghost note
> - accentuded note
NH - natural harmonic
AH - artificial harmonic
TH - tapped harmonic
SH - semi harmonic
PH - pitch harmonic
h - hammer on
p - pull off
b - bend
br - bendRelease
pb - preBend
pbr - preBendRelease
brb - bendReleaseBend
\n/ - tremolo bar dip
\n - tremolo bar dive
-/n - tremolo bar Release up
/n\ - tremolo bar inverted dip
/n - tremolo bar return
-\n - tremolo bar Release down
S - shift slide
s - legato slide
/ -  slide into from below or out of upwards
\ -  slide into from above or out of downwards
~ - vibrato
W - wide vibrato
tr - trill
TP - tremolo picking
T - tapping
S - slap
P - pop
< - fade in
^ - brush up
v - brush down
Добавлено: 22.06.2013
Другие материалы по этой песне:

Страница создана 24.03.2012
http://primanota.ru/clapton-eric/stop-breakin-down-blues-chords.htm
Привет, Гость.
Предлагаем пройти революционный курс по гитаре.
Подарок от PrimaNota.Ru, забирай!