PrimaNota.ru - самый крупный в мире бесплатный архив песенных текстов, аккордов, табулатур и нот


Clapton, Eric - Love Don't Love Nobody - текст песни, таба, видео

Регистрация Запомнить меня
Войти через:  Facebook Google Twitter Vk Yandex Mail.ru

Clapton, Eric - Love Don't Love Nobody - текст песни, таба, видео

Печатать
Просмотров: 174
-------------------------------------------------------------------------------
                             LOVE DON'T LOVE NOBODY - Eric Clapton
-------------------------------------------------------------------------------
Tabbed by: Huiberts
E-mail: huibertsguitar@gmail.com

Tuning: standard

This tab is pretty much how to play the solo. There might be some mistakes.
the timing might be a bit tricky. Good luck.
Play with a lot of vibrato on the long notes.

e|------------8--9--11--13~----14~~--16~~--18b20--18b20~~--18~~--|
B|--9~~--9-------------------------------------------------------|
G|---------(8)---------------------------------------------------|
D|---------------------------------------------------------------|
A|---------------------------------------------------------------|
E|---------------------------------------------------------------|

e|---16h18p16-----16--18------------------------------------|
B|------------19----------18----16b18--16~~-----------------|
G|-------------------------------------------15pbr17--13~~--|
D|----------------------------------------------------------|
A|----------------------------------------------------------|
E|----------------------------------------------------------|

e|----------------------------------------------------------------|
B|-----13-14h16--16b18~~---16b18~~--16b18rb16---16b18--16b18--14--|
G|--13------------------------------------------------------------|
D|----------------------------------------------------------------|
A|----------------------------------------------------------------|
E|----------------------------------------------------------------|

e|--------------------------------------------------------------|
B|--13h14p13-11~~--11h13p11-9~~----------14---------------------|
G|------------------------------------/16----16-15--8b10-8-6----|
D|--------------------------------------------------------------|
A|--------------------------------------------------------------|
E|--------------------------------------------------------------|

e|---------------------------------------------------------------------------|
B|--------6-----------------------------------------13--13b15--13------------|
G|--6--8-----8~~--8/10--10/11--11/13--13/15------15--------------------------|
D|---------------------------------------------------------------------------|
A|---------------------------------------------------------------------------|
E|---------------------------------------------------------------------------|

************************************

| /   slide up
| \   slide down
| h   hammer-on
| p   pull-off
| ~   vibrato
| +   harmonic
| x   Mute note
| b   Bend
| pb  Pre-bend
| br  Bend release
| pbr Pre-bend release
| brb Bend release bend

************************************
Добавлено: 26.08.2015
Другие материалы по этой песне:
  • Аккорды и текст

Страница создана 11.04.2012
http://primanota.ru/clapton-eric/love-dont-love-nobody-chords.htm
Привет, Гость.
Предлагаем пройти революционный курс по гитаре.
Подарок от PrimaNota.Ru, забирай!