PrimaNota.ru - самый крупный в мире бесплатный архив песенных текстов, аккордов, табулатур и нот


Clapton, Eric - Outside Woman Blues - текст песни, таба, видео

Регистрация Запомнить меня
Войти через:  Facebook Google Twitter Vk Yandex Mail.ru

Clapton, Eric - Outside Woman Blues - текст песни, таба, видео

Печатать
Просмотров: 342
ERIC CLAPTON OUTSIDE WOMAN BLUES TAB (ACOUSTIC)

See Youtube video: https://www.youtube.com/watch?v=9oarej9z--E

Intro

E-----------------------------------------------------------------------
B---------8\------------------------------------------------------------
G---------7\---------------------------------   4 times   --------------
D---------6\--x-x-----2.------0-----------------------------------------
A---------7\--x-x-2h4-----0h2-------------------------------------------
E-0---0-----------------------------------------------------------------

Verse

E-----------------------------------------------------------------------
B---------8\------------------------------8\----------------------------
G---------7\------------------------------7\----------------------------
D---------6\--x-x-----2.------0-----------6\----x-----2.------0---------
A---------7\--x-x-2h4-----0h2-------------7\--x---2h4-----0h2-----------
E-0---0---------------------------0---0---------------------------------

E-----------------------------------------------------------------------
B-----------------------------------------------------------------------
G-----------------------------------------------------------------------
D----------5---7---7(8)-7.-5-----5'--------x-----2.------0--------------
A-----/7---------------------7~------7\--x---2h4-----0h2----------------
E-0---------------------------------------------------------------------

Chorus

E---------0---0-0---------0---0-0---------0---0-0---------0---0-0-------
B---------0---0-0---------0---0-0---------0---0-0---------0---0-0-------
G-2---2---2---2-2-2---2---2---2-2-2---2---2---2-2-2---2---2---2-2-------
D-1---1---1-------1---1---1-------1---1---1-------1---1---1-------------
A-2---2---2-------2---2---2-------2---2---2-------2---2---2-------------
E-----------------------------------------------------------------------


E-----------------------------------------------------------------------
B-----------------------------------------------------------------------
G-----------------------------------------------------------------------
D----------5---7---7(8)-7.-5-----5'--------x-----2.------0--------------
A-----/7---------------------7~------7\--x---2h4-----0h2----------------
E-0---------------------------------------------------------------------

Chorus 2

E---------0---0-0---------0---0-0---------0---0-0---------0---0-0-------
B---------0---0-0---------0---0-0---------0---0-0---------0---0-0-------
G-2---2---2---2-2-2---2---2---2-2-2---2---2---2-2-2---2---2---2-2-------
D-1---1---1-------1---1---1-------1---1---1-------1---1---1-------------
A-2---2---2-------2---2---2-------2---2---2-------2---2---2-------------
E-----------------------------------------------------------------------


E---------0---0-0---------0---0-0---------------------------------------
B---------0---0-0---------0---0-0---------------------------------------
G-2---2---2---2-2-2---2---2---2-2---------------------------------------
D-1---1---1-------1---1---1---------------------------------------------
A-2---2---2-------2---2---2---------------------------------------------
E-----------------------------------------------------------------------


E-----------------------------------------------------------------------
B-----------------------------------------------------------------------
G-----------------------------------------------------------------------
D----------5---7---7(8)-7.-5-----5'--------x-----2.------0--------------
A-----/7---------------------7~------7\--x---2h4-----0h2----------------
E-0---------------------------------------------------------------------

SOLO

E-----------------------------------------------------------------------
B---------8------8-8\----------------------8------8-8\------------------
G---------7------7-7\----------------------7------7-7\------------------
D---------6------6-6\----------2-------x-x-6------6-6\----------2-------
A---------7------7-7\--x-x-2h4---------x-x-7------7-7\--x-x-2h4---------
E-0---0----------------------------0---x-x------------------------------


E-----------------------------------------------------------------------
B----------8---10---10(12)-10.--8-----8~~-------------------------------
G-----/9--------------------------9~~-----9\----------------------------
D-----------------------------------------------x-----2.------0---------
A---------------------------------------------x---2h4-----0h2-----------
E-0---------------------------------------------------------------------


E-----------------------------------------------------------------------
B---------8------8-8\----------------------8-8----8-8\------------------
G---------7------7-7\----------------------7-7----7-7\------------------
D---------6------6-6\----------2-------x-x-6-6----6-6\----------2-------
A---------7------7-7\--x-x-2h4---------x-x-7-7----7-7\--x-x-2h4---------
E-0--------------------------------0---x-x------------------------------


E-----------------------------------------------------------------------
B----------8---10---(12).--10.--8-----8~~-------------------------------
G-----/9--------------------------9~~-----9\----------------------------
D-----------------------------------------------x-----2.------0---------
A---------------------------------------------x---2h4-----0h2-----------
E-0---------------------------------------------------------------------


e---------0---0-0-----0-0-0---0-0-----0-0-0-0-0-0-0---0---0-------------
H---------0---0-0-----0-0-0---0-0-----3-3-3-3-3-3-3---0---0-------------
G-2---2---2---2-2-2---2-2-2---2-2-2---2-2-2-2-2-2-2---2---2-------------
D-1---1---1-------1---1-1-1-------1---1-1-1-1-1-1-1---1---1-------------
A-2---2---2-------2---2-2-2-------2---2-2-2-2-2-2-2---2---2-------------
E-----------------------------------------------------------------------


e-------0-0-0-0-0---0-0-------------------------------------------------
H-------3-3-3-3-3---3-3-3h5---3-----------------------------------------
G-2/4---4-4-4-4-4---4-4-----------4\2p0---------------------------------
D---------------------------------------2-------------------------------
A-----------------------------------------------------------------------
E-----------------------------------------------------------------------


e-----------------------------------------------------------------------
H-----------------------------------------------------------------------
G-----------------------------------------------------------------------
D----------5---7---7(8)-7.-5-----5'--------x-----2.------0--------------
A-----/7---------------------7~------7\--x---2h4-----0h2----------------
E-0---------------------------------------------------------------------

Chorus 3 

e---------0---0-0---------0---0-0---------0---0-0---------0---0-0-------
H---------0---0-0---------0---0-0---------0---0-0---------0---0-0-------
G-2---2---2---2-2-2---2---2---2-2-2---2---2---2-2-2---2---2---2-2-------
D-1---1---1-------1---1---1-------1---1---1-------1---1---1-------------
A-2---2---2-------2---2---2-------2---2---2-------2---2---2-------------
E-----------------------------------------------------------------------


e---------0---0-0---------0---0-0---------0---0-0-----------------------
H---------0---0-0---------0---0-0---------0---0-0-----------------------
G-2---2---2---2-2-2---2---2---2-2-2---2---2---2-2-1---------------------
D-1---1---1-------1---1---1-------1---1---1-------2---------------------
A-2---2---2-------2---2---2-------2---2---2-------2---------------------
E-------------------------------------------------0---------------------

Hmmmmmm....... hmmmmmmmmm...... hmmhmmmmm.................. :D

THE END

e-----------------------------------------0-----------------------------
H--------------------------------------------0--------------------------
G-/9--------------------------------------------1-----------------------
D---------9\7p5-----5h6-------------------------------------------------
A---------------7-------7-----5--7--------------------------------------
E--------------------------7--------0-----------------------------------
Добавлено: 05.07.2014
Другие материалы по этой песне:

Страница создана 01.03.2012
http://primanota.ru/clapton-eric/outside-woman-blues-chords.htm
Привет, Гость.
Предлагаем пройти революционный курс по гитаре.
Подарок от PrimaNota.Ru, забирай!