PrimaNota.ru - самый крупный в мире бесплатный архив песенных текстов, аккордов, табулатур и нот


Clapton, Eric - Badge - аккорды и текст, таба, бас-таба, видео

Регистрация Запомнить меня
Войти через:  Facebook Google Twitter Vk Yandex Mail.ru

Clapton, Eric - Badge - аккорды и текст, таба, бас-таба, видео

Печатать
Просмотров: 200
Авторы: George Harrison, Eric Clapton

Badge
Clapton, Eric
INTRO:
------
Am D Am
G|---------------|------------------|-----------------|
D|---R---R---R---|------------R-----|----R---R---R----|
A|-----3---7---3/|-/5-5-5-5-5-------|------3---7---3/-|
E|-5-------------|--------------3H4H|-H5--------------|

VERSE 1:
--------
D Am D
G|------------------|-------------------------|-------------------------------|
D|------------------|----R---R---------R------|----------------------R--------|
A|-/5-5-5-5-5-------|------3------7---------3/|-/5-5---5---5----5--------5H6H-|
E|------------2-3H4H|-H5----------------------|-------------------------------|

Em Am
G|--------------------|----------------|------------------------|
D|--------------R-----|----------------|---R---R--------R-------|
A|-H7-7-7-7-7-7---5H6H|-H7-7-7-7-5-3-2-|-----3------7--------3/-|
E|--------------------|----------------|-5----------------------|

D Em(add9) Em
G|-------------------------------|--------------------|----9-7-5-4-----------|
D|-----------------------R-------|--------------R-----|------------7-5-4-----|
A|-/5-5---5----5----5--------5H3H|-H7-7-7-7-7-7---5H6H|-H7---------------7-5-|
E|-------------------------------|--------------------|----------------------|

C Am Bm
G|------------------------------|----------------------------|-----4-----------|
D|-----R-----------------R------|-----------------------R----|---4-------------|
A|-3-3---------3----------------|-0----0--------0------------|-2-------2---2-0-|
E|---------3--------3---------0-|---0-------0--------------2-|-------2---2-----|

VERSE 2:
-------
Am(add9) Am
G|----------|-----------|-----------------------|
D|------R-R-|-R-R-------|---R---R--------R------|
A|----------|-----------|-----3------7-------3/-|
E|--(0)-----|-----0-3-4-|-5---------------------|

D Em(add9) Em
G|----------------------------|--------------------|--------------------|
D|--------------------R-------|--------------R-----|--------------------|
A|-/5-5-5----5----5-------5H6H|-H7-7-7-7-7-7---5H6H|-H7-7-7-5-6-7-5-3-2-|
E|----------------------------|--------------------|--------------------|

Am D Em(add9)
G|------------------------|------------------------------|---------------------|
D|---R---R---------R------|----------------------R-------|--------------R------|
A|-----3------7-----------|-5------5----5----5-------5H6H|-H7-7-7-7-7-7---5H6H-|
E|-5--------------------5-|------------------------------|---------------------|

Em C Am
G|----9-7-5-4-----------|--------------------------|----------------2----------|
D|------------7-5-4-----|---R--------------------R-|-----------2----------R----|
A|-H7---------------7-5-|-3--------3---------3-----|-0-----0-------------------|
E|----------------------|--------3------3----------|-----0-------------------2-|

Bm Am(add9) D C7M  
G|-----4-----------|--------|--------|
D|---4-------------|----R-R-|------R-|
A|-2-------2---2-0-|--0-----|--------|
E|-------2---2-----|--------|--------|

BRIDGE:
------
G/B G D C7M   G/B G
G|------------|--------------|------|
D|----R-------|----R---------|----R-|
A|------------|--------------|------|
E|------------|--------------|------|

D C7M   G/B G D C7M  
G|------------------|-----------------------|----------------------------|
D|-R-R------R-------|-----------------------|----------------------R-----|
A|------------3-----|--3--------2---2-------|--5-----------5-5---------3-|
E|------------------|---------------------3-|----------------------------|

G/B G D C7M   G/B G
G|----------------------------|----------------------|---------------------|
D|----------------------------|------------R---------|---------------------|
A|--(3)---------2-----2-------|-5-5----5-------3-----|--3-------2---2------|
E|------------------------3---|----------------------|-------------------3-|

D C7M   G/B G D C7M  
G|-------------------------------|------------------------|--------------------|
D|-------------------------------|------------------------|--------------------|
A|-5-5--5-----5----5---5-5-3-----|--3----------2---2------|-5-5-5-5-5-5----5-3-|
E|-------------------------------|--------------------3---|--------------------|

GUITAR SOLO:
-----------
G/B G D C G/B G
G|--------------------------------|---7-7-------------|----------------|
D|--------------------------------|-------------------|----------------|
A|--(3)----------2----2-------3-4-|-5-----3-4-5-5-5-3-|--3-2-2-----3-4-|
E|-----------------------3--------|-------------------|----------3-----|

D C7M   G/B G D C7M  
G|-----7-7-7-----------|------------------------|---7-7---7-7---7-7---------|
D|-----------7---------|------------------------|-------R-----R-------------|
A|-5-5---------5-3-----|--3-3-3-2-2-2---(3)-(4)-|-5-----------------5-5-5-3-|
E|---------------------|--------------3---------|---------------------------|

G/B G D C7M   G/B G
G|---------------|-------------------------|-----------------|
D|---------------|----X/7--X/7-5-4---------|------------R----|
A|--(3)-2-2------|-5---------------5-3-----|--3-3-3-2-2------|
E|-------------3-|-------------------------|---------------3-|

D C7M   G/B G D C7M  
G|-------7-7-7-5-----------|-------------|---------(5)-7-7-5-----------|
D|-----7---------7-5-3-----|-------------|---R-(7)-----------7-5-3-----|
A|-5-5-----------------5-3-|--3-3-2-2----|-5-----------------------5-3-|
E|-------------------------|-----------3-|-----------------------------|

G/B G D C7M  
G|--------------------|------------|--------------|
D|--------------------|------------|--------------|
A|--(3)-3-3-2-2-2-0---|-5-5-5-5-3--|--3-3-3-2-2---|
E|------------------3-|------------|------------3-|

VERSE 3:
-------
D Am D
G|-----------------|-----------------------|------------------5-7-----------|
D|-----------------|-----5-R-5-7-R-------R-|------------5-7-R-----R-5-7-R---|
A|-5-5-5-5-5-4-3-2-|-0-7------------0------|-5----------------------------5-|
E|-----------------|-----------------------|--------------------------------|

Em(add9) Am
G|--------------------|------------------|-----------------|
D|----------------R---|------------------|-------5-6-7-----|
A|-7----7-7-7-7-7---2/|-/7-7-7-7-7-5-----|---7-------------|
E|--------------------|--------------8-7-|-5-------------5-|

D Em
G|---------------5-7------------|-----------------|------9-7-5-4---------|
D|---------5-7-R------R-5-7-----|-------------R---|--------------7-5-----|
A|-5------------------------5---|-7-7-7-7-7-7---2/|-/7-7-------------7-5-|
E|------------------------------|-----------------|----------------------|

C Am Bm Am(add9)
G|-----------------------|-------------------------------|-----------------|---|
D|---R-------------R-----|-------------------------R-----|-----------------|---|
A|-3-------3-------------|-0-----0---------0-------------|-2-2-2---2---2-0-|-0-|
E|-----3---------3-----0-|-----0-------0---------------2-|-------2---2-----|---|
Добавлено: 05.12.2013
Другие материалы по этой песне:

Страница создана 24.03.2012
http://primanota.ru/clapton-eric/badge-chords.htm
Привет, Гость.
Предлагаем пройти революционный курс по гитаре.
Подарок от PrimaNota.Ru, забирай!