PrimaNota.ru - самый крупный в мире бесплатный архив песенных текстов, аккордов, табулатур и нот


Clapton, Eric - Blow Wind Blow - текст песни, бас-таба, видео

Регистрация Запомнить меня
Войти через:  Facebook Google Twitter Vk Yandex Mail.ru

Clapton, Eric - Blow Wind Blow - текст песни, бас-таба, видео

Печатать
Просмотров: 198
Уроки эстрадного вокала в Санкт-Петербурге
Авторы музыки: Muddy Waters
Авторы текста: Muddy Waters
Eric Clapton
Blow Wind Blow

Bass Tabs

Tuning: EADG
Tempo: 117 bpm
Key: G


Intro: 00:01
G|------------|------------||-------------------------|
D|----------2-|----------2-||-----------2-2--5-3-2----|
A|----2-2-5---|----2-2-5---||----2-2-5-------------5--|
E|2/3---------|2/3---------||2/3----------------------|

G|----------2-|----------2-||-------------------------|
D|----2-2-5---|----2-2-5---||-----------2-2--5--------|
A|2/3---------|2/3---------||----2-2-5---------2-3-4--|
E|------------|------------||2/3----------------------|

G|----------4-|----------2-||-------------------------|
D|----4-4-7---|----2-2-5---||----------------2-5------|
A|4/5---------|2/3---------||----2-2-3-4-5-------5g~--|
E|------------|------------||2/3----------------------|


Verse1: 00:24
G|------------|------------||-------------------------|
D|----------2-|----------2-||-----------2-2--5-3-2----|
A|----2-2-5---|----2-2-5---||----2-2-5-------------5--|
E|2/3---------|2/3---------||2/3----------------------|
When the sun rose this morning,
I didn't have my baby by my side.
G|----------2-|----------2-||-------------------------|
D|----2-2-5---|----2-2-5---||-----------2-2--5--------|
A|2/3---------|2/3---------||----2-2-5---------2-3-4--|
E|------------|------------||2/3----------------------|
When the sun rose this morning,
I didn't have my baby by my side.
G|----------4-|----------2-||-------------------------|
D|----4-4-7---|----2-2-5---||-----------2-2--5--------|
A|4/5---------|2/3---------||----2-2-5---------5-3-2--|
E|------------|------------||2/3----------------------|
I don't know where she was,
I know she's out with some other guy.


Verse2: 00:49
G|------------|------------||-------------------------|
D|----------2-|----------2-||-----------2-2--5-3-2----|
A|----2-2-5---|----2-2-5---||----2-2-5-------------5--|
E|2/3---------|2/3---------||2/3----------------------|
Don't the sun look lonesome
Shading down behind the trees?
G|----------2-|----------2-||-------------------------|
D|----2-2-5---|----2-2-5---||-----------2-2--5--------|
A|2/3---------|2/3---------||----2-2-5---------2-3-4--|
E|------------|------------||2/3----------------------|
Don't the sun look lonesome
Shading down behind the trees?
G|----------4-|----------2-||-------------------------|
D|----4-4-7---|----2-2-5---||----------------2-5------|
A|4/5---------|2/3---------||----2-2-3-4-5-------5g~--|
E|------------|------------||2/3----------------------|
But don't your house look lonesome
When your baby's packed to leave.


Instrumental: 01:14
G|------------|------------||-------------------------|
D|----------2-|----------2-||-----------2-2--5-3-2----|
A|----2-2-5---|----2-2-5---||----2-2-5-------------5--|
E|2/3---------|2/3---------||2/3----------------------|

G|----------2-|----------2-||-------------------------|
D|----2-2-5---|----2-2-5---||-----------2-2--5--------|
A|2/3---------|2/3---------||----2-2-5---------2-3-4--|
E|------------|------------||2/3----------------------|

G|----------4-|----------2-||-------------------------|
D|----4-4-7---|----2-2-5---||----------------2-5------|
A|4/5---------|2/3---------||----2-2-3-4-5-------5g~--|
E|------------|------------||2/3----------------------|


Verse3: 01:38
G|------------|------------||-------------------------|
D|----------2-|----------2-||-----------2-2--5-3-2----|
A|----2-2-5---|----2-2-5---||----2-2-5-------------5--|
E|2/3---------|2/3---------||2/3----------------------|
Blow wind, blow wind,
Blow my baby back to me.
G|----------2-|----------2-||-------------------------|
D|----2-2-5---|----2-2-5---||-----------2-2--5--------|
A|2/3---------|2/3---------||----2-2-5---------2-3-4--|
E|------------|------------||2/3----------------------|
Blow wind, blow wind,
Blow my baby back to me.
G|----------4-|----------2-||-------------------------|
D|----4-4-7---|----2-2-5---||-----------2-2--5--------|
A|4/5---------|2/3---------||----2-2-5---------5-3-2--|
E|------------|------------||2/3----------------------|
Well you know if I don't soon find her,
I will be in misery.

Instrumenta2: 02:03
G|------------|------------||-------------------------|
D|----------2-|----------2-||-----------2-2--5-3-2----|
A|----2-2-5---|----2-2-5---||----2-2-5-------------5--|
E|2/3---------|2/3---------||2/3----------------------|

G|----------2-|----------2-||-------------------------|
D|----2-2-5---|----2-2-5---||-----------2-2--5--------|
A|2/3---------|2/3---------||----2-2-5---------2-3-4--|
E|------------|------------||2/3----------------------|

G|----------4-|----------2-||-------------------------|
D|----4-4-7---|----2-2-5---||----------------2-5-2----|
A|4/5---------|2/3---------||----2-2-3-4-5---------5g-|
E|------------|------------||2/3----------------------|

Verse4/outro: 02:28
G|------------|------------||-------------------------|
D|----------2-|----------2-||-----------2-2--5-3-2----|
A|----2-2-5---|----2-2-5---||----2-2-5-------------5--|
E|2/3---------|2/3---------||2/3----------------------|
oh, goodbye baby,
That is all I have left to say.
G|----------2-|----------2-||-------------------------|
D|----2-2-5---|----2-2-5---||-----------2-2--5--------|
A|2/3---------|2/3---------||----2-2-5---------2-3-4--|
E|------------|------------||2/3----------------------|
Blow wind, blow wind,
Blow my baby back to me.
G|----------4-|----------2-||-------------------------|
D|----4-4-7---|----2-2-5---||----------------5-2------|
A|4/5---------|2/3---------||----2-2-3-4-5---------~--|
E|------------|------------||2/3-----------------3g~--|
But you have lost your good thing,
Go ahead and have your own way.

End: 02:59


Tablature Legend
----------------
 h   - hammer-on
 p   - pull-off
 b   - bend
 pb  - pre-bend
 r   - bend release quickly
 /\  - slide into or out of (from/to "nowhere")
 s   - legato slide
 S   - shift slide
  - natural harmonic
[n]  - artificial harmonic
n(n) - tapped harmonic
 ~   - vibrato
 tr  - trill
 T   - tap
 TP  - trem. picking
 PM  - palm muting
\n/  - tremolo bar dip; n = amount to dip
 \n  - tremolo bar down
 n/  - tremolo bar up
/n\  - tremolo bar inverted dip
 =   - hold bend; also acts as connecting device for hammers/pulls
 <>  - volume swell (louder/softer)
 x   - on rhythm slash represents muted slash
 .   - full stop
 o   - on rhythm slash represents single note slash
Добавлено: 20.08.2015
Другие материалы по этой песне:

Страница создана 04.05.2012
http://primanota.ru/clapton-eric/blow-wind-blow-chords.htm
Привет, Гость.
Предлагаем пройти революционный курс по гитаре.
Подарок от PrimaNota.Ru, забирай!