PrimaNota.ru - самый крупный в мире бесплатный архив песенных текстов, аккордов, табулатур и нот


City And Colour - Solow - текст песни, таба, видео

Регистрация Запомнить меня
Войти через:  Facebook Google Twitter Vk Yandex Mail.ru

City And Colour - Solow - текст песни, таба, видео

Печатать
Просмотров: 198
Here is my version of So Low by City and Colour.
This is my first tab so please rate and correct me if i am wrong. =)

Drop D tuning.
Capo 2

E|----------0-----0---------0-----------------5-----0-------5---0--------|
B|--7---7-----7-----7---7-------7-------3---3---3-------3-----------3----|
G|----4---4-----4-----4---4---4---4---6---6-------6---6---6---6---6------|
D|-----------------------------------------------------------------------|
A|-----------------------------------------------------------------------|
E|-----------------------------------------------------------------------|


E|-----------0----------------0-----------------0----------------0-------|
B|------3------3---3-----3------3---3-------3-----3---3------3-----3---3-|
G|----6----------------6------------------6----------------6-------------|
D|--5-----5------5---5------5-----5-----4-----4-----4----5-----5-----5---|
A|-----------------------------------------------------------------------|
E|-----------------------------------------------------------------------|


E |----------0-----5-----0-------0-------------5-----0-------5----0------|
B |--7---7-----7-----7-------7-----------3---3---3-------3------------3--|
G |----4---4-----4-----4---4---4----4--6---6-------6---6---6---6----6----|
D |----------------------------------------------------------------------|
A |----------------------------------------------------------------------|
D |----------------------------------------------------------------------|


E |-----------0----------------0-----------------0----------------0-------|
B |------3------3---3-----3------3---3-------3-----3---3------3-----3---3-|
G |----6----------------6------------------6----------------6-------------|
D |--5-----5------5---5------5-----5-----4-----4-----4----5-----5-----5---|
A |-----------------------------------------------------------------------|
D |-----------------------------------------------------------------------|

Verses

E |----0--0--0------0--5------0--0--0------0--0-0--0-0----|
B |----0--0--0------2--2------0--0--0------0--0-0--0-0----|
G |----7--6--0------0--0------0--0--0------0--0-0--0-0----|
D |----0--0--7------4--4------0--0--0------0--0-0--0-0----|
A |----9--9--9------0--0------5--4--0------4--4/5--5/7----|
D |----9--9--9------0--0------5--5--5------4--4/5--5/7----|

I'm pretty sure those are the chords that he plays throughout the song as well as the 
that is played underneath it. I hope it helps with the learning of the song as I cannot 
notate the strumming pattern. =)

Any feedback or corrections just email me or message me.
email: seanis_mcgaunis@hotmail.com
Добавлено: 02.05.2012
Другие материалы по этой песне:

Страница создана 12.03.2012
http://primanota.ru/city-and-colour/so-low-chords.htm
Привет, Гость.
Предлагаем пройти революционный курс по гитаре.
Подарок от PrimaNota.Ru, забирай!