PrimaNota.ru - самый крупный в мире бесплатный архив песенных текстов, аккордов, табулатур и нот


City And Colour - Sometimes - текст песни, таба, видео

Регистрация Запомнить меня
Войти через:  Facebook Google Twitter Vk Yandex Mail.ru

City And Colour - Sometimes - текст песни, таба, видео

Печатать
Просмотров: 499
-------------------------------------------------------------------------------
                             Sometimes - Dallas Green
-------------------------------------------------------------------------------
Tabbed by: Donald Coleman
Email: coleman_don@hotmail.com

Tuning: EADGBe Capo 6th fret

So i finally got sick of looking for a tab for this song and made one myself.  i figured
must be other people out there thinking the same thing so i put it on here.  Ok this
is incredibly simple once you have the intro down.  It basicly follows two chords 
the entire song.  I guarantee that if your guitar is in tune and the capo is in place it
sound right.  just listen to the song to find how he strums the chords.

Intro:
e|-------------------0---------------------0-------------------0---------------------0-|
B|-------------------0---------------------0-------------------0---------------------0-|
G|------------2-2h4--0--2/4-2--------------0------------2-2h4--0--2/4-2--------------0-|
D|----0-2-2h4--------4--------2/4-2-0-0h2--2----0-2-2h4--------4--------2/4-2-0-0h2--2-|
A|--2----------------2---------------------3--2----------------2---------------------3-|
E|-------------------0---------------------0-------------------0---------------------0-|

e|--0--0--|
B|--0--0--|
G|--0--0--|
D|--4--2--|
A|--2--3--|
E|--0--0--|

| /  slide up
| \  slide down
| h  hammer-on
| p  pull-off
| ~  vibrato
| +  harmonic
| x  Mute note
===============================================================================
Добавлено: 10.04.2012
Другие материалы по этой песне:
  • Аккорды и текст

Страница создана 10.04.2012
http://primanota.ru/city-and-colour/sometimes-chords.htm
Привет, Гость.
Предлагаем пройти революционный курс по гитаре.
Подарок от PrimaNota.Ru, забирай!