PrimaNota.ru - самый крупный в мире бесплатный архив песенных текстов, аккордов, табулатур и нот


Cinderella - Keep Me In You Heart - таба, видео

Регистрация Запомнить меня
Войти через:  Facebook Google Twitter Vk Yandex Mail.ru

Cinderella - Keep Me In You Heart - таба, видео

Печатать
Просмотров: 135
Keep Me In Your Heart (unreleased demo)
by Cinderella
Have fun playing!



Standard Tuning


      h - hammer on 
      p - pull off 
      b - bend string up
      / - Tremolo bar down
      x - fret hand muting
     PM - palm mute
    \\\ - slide with pick along string(s)


           Tremolo bar: 1 tone down                     
e|----------------------------------------------------------|
B|----------------------------------------------------------|
G|-------------------9/(7)----------------------------------|
D|-----------------------------9------------\\\\\\----------|
A|-----------------------------7------------\\\\\\----------|
E|----------------------------------------------------------|
   [Bass Intro]        




                              Tremolo bar:½ tone down(twice)
e|----------------------------------------------------------|
B|----------------------------------------------------------|
G|----------------------------------------------------------|
D|--------2--------------------------------2/2/-------------|
A|--2-----0------2------2p0----------2-----0/0/-------------|
E|--0--2---------0--2-------2--------0--2-------------------|
PM: .  .         .  .   . .          .  .

e|----------------------------------------------------------------|
B|----------------------------------------------------------------|
G|----------------------------------------------2--4b(5)r-4b(5)r--|
D|--------2--------------------------------2----------------------|
A|--2-----0------2------2p0----------2-----0----------------------|
E|--0--2---------0--2-------2--------0--2-------------------------|
PM: .  .         .  .   . .          .  .

                                    
e|----------------------------------------------------------|
B|----------------------------------------------------------|
G|----------------------------------------------------------|
D|--------2--------------------------------2~2~-------------|
A|--2-----0------2------2p0----------2-----0~0~-------------|
E|--0--2---------0--2-------2--------0--2-------------------|
PM: .  .         .  .   . .          .  .


e|----------------------------------------------------------------|
B|----------------------------------------------------------------|
G|----------------------------------------------2--4b(5)r-4b(5)r--|
D|--------2--------------------------------2----------------------|
A|--2-----0------2------2p0----------2-----0----------------------|
E|--0--2---------0--2-------2--------0--2-------------------------|
PM: .  .         .  .   . .          .  .

                                    
e|----------------------------------------------------------|
B|----------------------------------------------------------|
G|----------------------------------------------------------|
D|--------2--------------------------------2~2~-------------|
A|--2-----0------2------2p0----------2-----0~0~-------------|
E|--0--2---------0--2-------2--------0--2-------------------|
PM: .  .         .  .   . .          .  .



e|--------------------------------|
B|--------------------------------|
G|--------------------------------|
D|--------2-----------------------|
A|--2-----0------2------2p0-------|
E|--0--2---------0--2-------2-----|
PM: .  .         .  .   . .       




BRIDGE:
e|-----------------------------------------|
B|-----------------------------------------|
G|---2--2----4--4-----7--7----4--4---------|
D|---2--2----4--4-----7--7----4--4---------|
A|---0--0----2--2-----5--5----2--2---------|
E|-----------------------------------------|


e|--------------------------------------------------------|
B|--------------------------------------------------------|
G|---2--2----4--4-----7--7--------------------------------|
D|---2--2----4--4-----7--7--------------------------------|
A|---0--0----2--2-----5--5---4--4-4--2--2-2--0--0-0-------|
E|---------------------------------------------------4----|



CHORUS
e|----------------------------------------------------------|
B|----------------------------------------------------------|
G|---4--4--x-x-----x-4--4--x-x-----x-4--4--x-x----x-4--2----|
D|---4--4--x-x-----x-4--4--x-x-----x-4--4--x-x----x-4--2----|
A|---2--2--x-x-----x-2--2--x-x-----x-2--2--x-x----x-2--0----|
E|----------------------------------------------------------|

e|----------------------------------------|
B|----------------------------------------|
G|--------------------------2--2-----2-2--|
D|----5--5--------5--5------2--2-----2-2--|
A|----5--5--------5--5------0--0-----0-0--|
E|----3--3--------3--3--------------------|


e|------------------------------|
B|------------------------------|
G|---4--4--x-x-----x-4--2-------|
D|---4--4--x-x-----x-4--2-------|
A|---2--2--x-x-----x-2--0-------|
E|------------------------------|



VERSE

                                    
e|----------------------------------------------------------|
B|----------------------------------------------------------|
G|----------------------------------------------------------|
D|--------2--------------------------------2~2~-------------|
A|--2-----0------2------2p0----------2-----0~0~-------------|
E|--0--2---------0--2-------2--------0--2-------------------|
PM: .  .         .  .   . .          .  .

e|----------------------------------------------------------------|
B|----------------------------------------------------------------|
G|----------------------------------------------2--4b(5)r-4b(5)r--|
D|--------2--------------------------------2----------------------|
A|--2-----0------2------2p0----------2-----0----------------------|
E|--0--2---------0--2-------2--------0--2-------------------------|
PM: .  .         .  .   . .          .  .



                                    
e|----------------------------------------------------------|
B|----------------------------------------------------------|
G|----------------------------------------------------------|
D|--------2--------------------------------2~2~-------------|
A|--2-----0------2------2p0----------2-----0~0~-------------|
E|--0--2---------0--2-------2--------0--2-------------------|
PM: .  .         .  .   . .          .  .


e|----------------------------------------------------------------|
B|----------------------------------------------------------------|
G|----------------------------------------------2--4b(5)r-4b(5)r--|
D|--------2--------------------------------2----------------------|
A|--2-----0------2------2p0----------2-----0----------------------|
E|--0--2---------0--2-------2--------0--2-------------------------|
PM: .  .         .  .   . .          .  .




                                   
e|----------------------------------------------------------|
B|----------------------------------------------------------|
G|----------------------------------------------------------|
D|--------2--------------------------------2~2~-------------|
A|--2-----0------2------2p0----------2-----0~0~-------------|
E|--0--2---------0--2-------2--------0--2-------------------|
PM: .  .         .  .   . .          .  .



e|--------------------------------|
B|--------------------------------|
G|--------------------------------|
D|--------2-----------------------|
A|--2-----0------2------2p0-------|
E|--0--2---------0--2-------2-----|
PM: .  .         .  .   . .      


BRIDGE:
e|-----------------------------------------|
B|-----------------------------------------|
G|---2--2----4--4-----7--7----4--4---------|
D|---2--2----4--4-----7--7----4--4---------|
A|---0--0----2--2-----5--5----2--2---------|
E|-----------------------------------------|


e|--------------------------------------------------------|
B|--------------------------------------------------------|
G|---2--2----4--4-----7--7--------------------------------|
D|---2--2----4--4-----7--7--------------------------------|
A|---0--0----2--2-----5--5---4--4-4--2--2-2--0--0-0-------|
E|---------------------------------------------------4----|


CHORUS
e|----------------------------------------------------------|
B|----------------------------------------------------------|
G|---4--4--x-x-----x-4--4--x-x-----x-4--4--x-x----x-4--2----|
D|---4--4--x-x-----x-4--4--x-x-----x-4--4--x-x----x-4--2----|
A|---2--2--x-x-----x-2--2--x-x-----x-2--2--x-x----x-2--0----|
E|----------------------------------------------------------|

e|----------------------------------------|
B|----------------------------------------|
G|--------------------------2--2-----2-2--|
D|----5--5--------5--5------2--2-----2-2--|
A|----5--5--------5--5------0--0-----0-0--|
E|----3--3--------3--3--------------------|


e|------------------------------|
B|------------------------------|
G|---4--4--x-x-----x-4--2-------|
D|---4--4--x-x-----x-4--2-------|
A|---2--2--x-x-----x-2--0-------|
E|------------------------------|
 



SOLO
(Rythm guitar)

e|---------------------------------------------------------|
B|---------------------------------------------------------|
G|---------------------------------------------------------|
D|---------------------------------------------------------|
A|--2---------------2---------------2----------------------|
E|--0--2-2-2-2---0000--2-2-2-2---0000---2-2-2-2------------|
PM  .  . . . .   ....  . . . .   ....   . . . .
e|---------------------------------------------------------|
B|---------------------------------------------------------|
G|---------------------------------------------------------|
D|---------------------------------------------------------|
A|--2---------------2---------------2----------------------|
E|--0--2-2-2-2---0000--2-2-2-2---0000---2-2-2-2------------|
PM  .  . . . .   ....  . . . .   ....   . . . .

e|-----------------------------------------|
B|-----------------------------------------|
G|-----------------------------------------|
D|-----------------------------------------|
A|--2---------------2----------------------|
E|--0--2-2-2-2---0000--2-2-2-2----0-2-3----|
PM  .  . . . .   ....  . . . .   

e|-----------------------------------------|
B|-----------------------------------------|
G|---2--2----4--4-----7--7----4--4---------|
D|---2--2----4--4-----7--7----4--4---------|
A|---0--0----2--2-----5--5----2--2---------|
E|-----------------------------------------|


e|--------------------------------------------------------|
B|--------------------------------------------------------|
G|---2--2----4--4-----7--7--------------------------------|
D|---2--2----4--4-----7--7--------------------------------|
A|---0--0----2--2-----5--5---4--4-4--2--2-2--0--0-0-------|
E|---------------------------------------------------4----|



CHORUS
e|----------------------------------------------------------|
B|----------------------------------------------------------|
G|---4--4--x-x-----x-4--4--x-x-----x-4--4--x-x----x-4--2----|
D|---4--4--x-x-----x-4--4--x-x-----x-4--4--x-x----x-4--2----|
A|---2--2--x-x-----x-2--2--x-x-----x-2--2--x-x----x-2--0----|
E|----------------------------------------------------------|

e|----------------------------------------|
B|----------------------------------------|
G|--------------------------2--2-----2-2--|
D|----5--5--------5--5------2--2-----2-2--|
A|----5--5--------5--5------0--0-----0-0--|
E|----3--3--------3--3--------------------|


e|------------------------------|
B|------------------------------|
G|---4--4--x-x-----x-4--2-------|
D|---4--4--x-x-----x-4--2-------|
A|---2--2--x-x-----x-2--0-------|
E|------------------------------|




Repeat and fade out....
Добавлено: 01.05.2012
Другие материалы по этой песне:
  • Аккорды и текст

Страница создана 01.05.2012
http://primanota.ru/cinderella/keep-me-in-you-heart-chords.htm
Привет, Гость.
Предлагаем пройти революционный курс по гитаре.
Подарок от PrimaNota.Ru, забирай!