PrimaNota.ru - самый крупный в мире бесплатный архив песенных текстов, аккордов, табулатур и нот


Chris Daughtry - Weaker Side Of Me - таба, видео

Регистрация Запомнить меня
Войти через:  Facebook Google Twitter Vk Yandex Mail.ru

Chris Daughtry - Weaker Side Of Me - таба, видео

Печатать
Просмотров: 57
Уроки эстрадного вокала в Санкт-Петербурге
-------------------------------------------------------------------------------
                             Absent Element - Weaker Side of Me
-------------------------------------------------------------------------------
Tabbed by: Diesel
E-mail: daughtryfan497@gmail.com

Tuning: Drop C (C - G - C - F - A - D)

                              Intro

e|-----------3-3---------------------------------------------------------------------
B|--5br-5br---------5br--5br-----6---------------------------------------------------
G|-----5---5-----5-----5----5---7-7--------------------------------------------------
D|----------------------------------------------------------------------------------
A|-----------------------------------------------------------------------------------
E|-----------------------------------------------------------------------------------

e|-----------------------------------------------------------------------------|
B|-----------------------------------------------------------------------------|
G|--12-14-15-14-------17-19--15-------------------9-10-12--14-15--14-----------|
D|---x--x--x--x--x3----x--x---x--repeat-1st-part--x-x---x---x--x---x-----------|
A|--10-12-13-12-------15-17--13-------------------7-8--10--12-13--12-----------|
E|-----------------------------------------------------------------------------|

e|-------------------------------------------------------------------------------|
B|-------------------------------------------------------------------------------|
G|-------------------------------------------------------------------------------|
D|--0-----8----------------------------------------------------------------------|
A|--0-----8----------------------------------------------------------------------|
E|--0-----8----------------------------------------------------------------------|


                      1st and 2nd Verse

e|--------0-----------------------8----------------------------------------------|
B|-------6-6-------5h6p5---------6-6----5h6p5------------------------------------|
G|------7---7------------5/7----7---7--------5/7---------------------------------|
D|-----7-----7-----------------7-----7-------------------------------------------|
A|-------------------------------------------------repeat-x4---------------------|
E|-------------------------------------------------------------------------------|

e|-----------------------------------------------------------------------------|
B|-----------------------------------------------------------------------------|
G|-----------------------------5--7--------------------------------------------|
D|--8---3----------5---3---0---x--x--------------------------------------------|
A|--8---3----------5---3---0---3--5--------------------------------------------|
E|--8---3----------5---3---0---------------------------------------------------|

                    Repeat 1st half end with 888  and 333

                                Chorus

e|-----------------------------------------------------------------------------------
B|-----------------------------------------------------------------------------------
G|-----------------------------------------------------------------------------------
D|---0---8----5---0--8--10-----------------------------------------------------------
A|---0---8----5---0--8--10----------------------------------------------------------
E|---0---8----5---0--8--10-----------------------------------------------------------

e|---------------------------------|
B|---------------------------------|
G|-------10--12-14-15-14-----------|
D|--0--8--x---x--x--x--x-----8-10--|
A|--0--8--8--10-12-13-12-----8-10--|
E|--0--8---------------------8-10--|

e|---------------------------------------------------------|
B|---------------------------------------------------------|
G|---------------------------------------------------------|
D|--0000000-7h8p7-8-8-8-8-8-8-8-8--------------8-3--|
A|--0000000-------8-8-8-8-8-8-8-8--8/10---x4---8-3-------|
E|--0000000-------8-8-8-8-8-8-8-8--------------8-3----------|
    *******       * * * * * * * *

                           Chorus  Repeat 2nd half 4x

e|-----------------------------------------------------------------------------|
B|-----------------------------------------------------------------------------|
G|-----------------------------------------------------------------------------|
D|---8--3333333----------------------------------------------------------------|
A|---8--3333333----------------------------------------------------------------|
E|---8--3333333----------------------------------------------------------------|
        *******
                        Breakdown

e|-------------------------------------------------------------------------------|
B|-------------------------------------------------------------------------------|
G|-------------------------------------------------------------------------------|
D|--0-0--7-5-5-5-5/7-7-7--8888---------------------------------------------------|
A|--0-0--5-3-3-3-3/5-5-5--6666---------------------------------------------------|
E|--0-0--------------------------------------------------------------------------|
         * * * *     * *


                 Repeat Octave

                 Repeat 2nd Chorus

e|---------------------------------------|
B|---------------------------------------|
G|---------------------------------------|
D|--0-0---0-0---10-10-10-10---------0-0--|
A|--0-0---0-0---8--8--8--8-----x3---0-0--|
E|--0-0---0-0---8--8--8--8----------0-0--|

************************************

| /   slide up
| \   slide down
| h   hammer-on
| p   pull-off
| ~   vibrato
| +   harmonic
| x   Mute note
| b   Bend
| pb  Pre-bend
| br  Bend release
| pbr Pre-bend release
| brb Bend release bend

************************************
Добавлено: 29.12.2015
Вам также может быть интересно:
Другие материалы по этой песне:
  • Аккорды и текст

Страница создана 29.12.2015
http://primanota.ru/chris-daughtry/weaker-side-of-me-chords.htm
Привет, Гость.
Предлагаем пройти революционный курс по гитаре.
Подарок от PrimaNota.Ru, забирай!