PrimaNota.ru - самый крупный в мире бесплатный архив песенных текстов, аккордов, табулатур и нот


Chris Daughtry - Drown In You - текст песни, таба, видео

Регистрация Запомнить меня
Войти через:  Facebook Google Twitter Vk Yandex Mail.ru

Chris Daughtry - Drown In You - текст песни, таба, видео

Печатать
Просмотров: 571
Уроки эстрадного вокала в Санкт-Петербурге
By Anthony Mobbs
 won of the most awesome songs that daughtry made off of the soundtrack
 Batman:Arkham City     Standard tuning

INTRO
|----------------------------------------------------------------|
|----6----6--------5-----3---------------------------------------|
|-----7----7--------5-----3--------------------------------------|
|--7---7----7--------5-----3----5x2-2----------------------------|
|-5-----5----5---3------1-------5---2-2p4p2----------------------|
|-------------------------------3---0----------------------------|

CHORUS
|----------|-------------|---------------------------------------|
|-------2--|-------------|--------------6------------------------|
|-------2--|-3---5----7--|-5--3x7-5-----7------------------------|
|-5x8---2--|-3---5----7--|-5--3---5-----7------------------------|
|-5-----0--|-1---3----5--|-3--1---3-----5------------------------|
|-3--------|-------------|---------------------------------------|
            this part is x3            palm mute evry 2 notes here

VERSE

CHORUS

BRIDGE
|----------------------------------------------------------------|
|------------------------------6---------------------------------|
|--5x5--3---7x2-----3----5-----7x5-------------------------------|
|--5----3---7-------3----5-----7---------------------------------|
|--3----1---5-------1----3-----5---------------------------------|
|----------------------------------------------------------------|
                               palm mute here just like chorus
CHORUS

hope you like this one ill be putting the hole daughtry 
album break the spell.these arent perfect tabs but it can 
positively help you get started.peace

Добавлено: 29.07.2013
Другие материалы по этой песне:
  • Аккорды и текст

Страница создана 09.07.2013
http://primanota.ru/chris-daughtry/drown-in-you-chords.htm
Привет, Гость.
Предлагаем пройти революционный курс по гитаре.
Подарок от PrimaNota.Ru, забирай!