PrimaNota.ru - самый крупный в мире бесплатный архив песенных текстов, аккордов, табулатур и нот


Chris Daughtry - Spaceship - аккорды и текст, таба, видео

Регистрация Запомнить меня
Войти через:  Facebook Google Twitter Vk Yandex Mail.ru

Chris Daughtry - Spaceship - аккорды и текст, таба, видео

Печатать
Просмотров: 298
Spaceship
Chris Daughtry
Album: Break the Spell (2011)
Tuning: Standard
Tab created by: Adriana (adrianafaciu@yahoo.ca)

Legend:
| /   slide up
| \   slide down
| ~   vibrato
| x   Mute note
| b   Bend

Chords:

A:     002220
B:     X24442
Cadd9: 032030
D:     000232
E:     022100
F#m:   244222
G:     320003


Verse 1:

D           B
Hood of my car,
           G                B             A    D
Radio's just loud enough so I can hear Levon
                       A                 G
Where you are is anybody's guess but mine
          A                        G
Just a song that we grew up on;
                 A                  G
Constellations seem so out of line,
                    Cadd9
Wishing we could make it this time;

Chorus:
D
If somebody's out there,
A
Show me that you care,
B                     G
Give me a sign that comes out of nowhere,
D
Like a shooting star,
   F#m
Or maybe life on Mars,
B                           G
Something inside tells me we can't be so far,
      Em                 A
Cause I can see me on a spaceship leaving
Em                       A
Here only to find that we're not the only ones,



                                             We're not the only ones;
e|----------------10---------------------------------10-------------------------|
B|------7/8----10-----7/8--7--8/7----------7/8----10-----7/8--7--8/7------------|
G|---------------------------------7~---------------------------------7~--------|
D|------------------------------------------------------------------------------|
A|------------------------------------------------------------------------------|
E|------------------------------------------------------------------------------|



Verse 2:

D           B
Call me a fool,
               G
Day dreaming in the dark, yeah
          B             A      D
Throwing bottles at the moon
                    A                       G
Why you're gone is nobody's fault but mine;
         A                       G
Another song that we grew up on;
             A                        G
Can anybody tell me where I can find
                      Cadd9
That girl I can't get out of my mind;

Chorus:
D
If somebody's out there,
A
Show me that you care,
B                    G
Give me a sign that comes out of nowhere,
D
Like a shooting star,
   F#m
Or maybe life on Mars,
B                         G
Something inside tells me we can't be so far,
      Em                  A
Cause I can see me on a spaceship leaving
Em                      A
Here only to find that we're not the only ones;



Bridge:
B             F#m
Lookin' for love,
                D                    Em
Lookin' for something more when it's not enough;
G                     A
Gotta stay above the clouds,
               G                 A
Cause with our feet both on the ground,
            [solo starts at this point]
We'll never learn...


Solo:

e|--------------------------------10------------------------------------------------------------|
B|--10--12--10--10--10~----10/12-----12\10----7--8--10--10~---8--7--8--7---7--------------------|
G|-----------------------------------------------------------------------9---9--7---7--9--7/9~--|
D|--------------------------------------------------------------------------------9-------------|
A|----------------------------------------------------------------------------------------------|
E|----------------------------------------------------------------------------------------------|



e|----------------------------------------------------------------------------2--3--5--7/9--9~--|
B|--------------------------------------------------3--2--3--2--2--------3--5-------------------|
G|--7/6--7/6------------------------------------------------------3--2--------------------------|
D|-----------7---------------------------------------------------------4------------------------|
A|-------------9--7--9--7--9/12--12\9--9\7--7\5--5----------------------------------------------|
E|----------------------------------------------------------------------------------------------|



Bridge 2: [slightly muted]
            G                  A
Yeah, cause I can see me on a spaceship leaving

 G                      A
Here only to find that we're not the only...

Chorus:
B
If somebody's out there,
A
Show me that you care,
A                    G
Give me a sign that comes out of nowhere,
D
Like a shooting star,
    F#m
Or maybe life on Mars,
B                          G
Something inside tells me we can't be so far,
      Em
I'll take another fall,
     A
The spaceships leaving
 Em                       A
Come see for yourself if you don't believe me,
G
Together we will find that
A                                    D
We're not the only ones,

Outro:

                                             We're not the only ones;
e|-----------------10---------------------------------10-------------------------|
B|------7/8----10------7/8--7--8/7---------7/8----10-------7/8--7--8/7-----------|
G|----------------------------------7~----------------------------------7~-------|
D|-------------------------------------------------------------------------------|
A|-------------------------------------------------------------------------------|
E|-------------------------------------------------------------------------------|





[.Lyrics from: http://www.elyrics.net/read/d/daughtry-lyrics/spaceship-lyrics.html. but 
lyrics were wrong in some parts so they  have been corrected].
Добавлено: 03.03.2012
Другие материалы по этой песне:
  • Аккорды и текст

Страница создана 03.03.2012
http://primanota.ru/chris-daughtry/spaceship-chords.htm
Привет, Гость.
Предлагаем пройти революционный курс по гитаре.
Подарок от PrimaNota.Ru, забирай!