PrimaNota.ru - самый крупный в мире бесплатный архив песенных текстов, аккордов, табулатур и нот


Chris Cornell - Billie Jean Live - аккорды и текст, таба, видео

Регистрация Запомнить меня
Войти через:  Facebook Google Twitter Vk Yandex Mail.ru

Chris Cornell - Billie Jean Live - аккорды и текст, таба, видео

Печатать
Просмотров: 235
Billie Jean Live
Chris Cornell
Chris Cornell - Billie Jean

Standard Tuning

Capo: 0

Refer to this video to get the hang of the strumming pattern: https://www.youtube.com/watch?v=wh3QCQ9lV80

INTRO

E|-------------------------------------------------------------------------------------------------------------|
B|-------------------------------------------------------------------------------------------------------------|
G|-----------0-------------------------------------------------------------------------------------------------|
D|--------2-----2---------------------------------------------4x-----------------------------------------------|
A|-----2-----------2--(put some emphasis on the last pluck)----------------------------------------------------|
E|--0----------------------------------------------------------------------------------------------------------|

VERSE 1

E|-------------------------------------------------------------------------------------------------------------|
B|------------------------------------1-----------------------------------------------1-----------------1------|
G|-----------0---------------------2-----2--------------------0--------------------2-----2-----------2-----2---|
D|--------2-----2-------4x------2-----------2---2x---------2-----2------2x------2-----------2-----2-----------2|
A|-----2-----------2---------0--------------------------2-----------2--------0-----------------0---------------|
E|--0------------------------------------------------0---------------------------------------------------------|

E|-------------------------0--0--------------------------------------------------------------------------------|
B|-----------1-------------1--3--------------------------------------------------------------------------------|
G|--------0-----0----------0--0--------------0-----------------0-----------------0-----------------0-----------|
D|-----2-----------2-------2--4---------- 2-----2-----------2-----2-----------2-----2-----------2-----2--------|
A|--3-------------------3--3--5---------2----------2-----2-----------2-----2-----------2-----2-----------2-----|
E|-------------------------x--x-------0---------------0-----------------0-----------------0--------------------|

E|-------------------------------------------------------------0-----------------------------------------------|
B|-----------1-----------------1-------------------------------0-----------------------------------------------|
G|--------2-----2-----------2-----2--------------0-------------0-----------------------------------------------|
D|-----2-----------2-----2-----------2--------2-----2-------------0--------------------------------------------|
A|--0-----------------0--------------------2-----------2-------------------------------------------------------|
E|--------------------------------------0-------------------0--------------------------------------------------|

BRIDGE 1

E|-----0-----0--0--0--0----0--0--0---0--0--0--2----------------------------------------------------------------|
B|-----1-----0--1--0--0----0--0--0---1--0--1--4----------------------------------------------------------------|
G|-----0-----0--0--0--0----0--0--0---0--0--0--2----------------------------------------------------------------|
D|-----2-----2--2--2--0h2--2--2--0---2--2--2--4----------------------------------------------------------------|
A|--3--3-----2--3--2--2----2--2--2---3--2--3--2----------------------------------------------------------------|
E|-----x--0--0--x--0--x----x--x--x---x--0--x--x----------------------------------------------------------------|

CHORUS 1:

E|--0--0--0------0--0--0--0--0--0--5--7--0--0----0--0--0----0--0--0--5--7---0--0--0----------------------------|
B|--0--1--0------0--0--1--0--1--3--5--7--0--0----0--0--0----0--1--3--5--7---0--0--0----------------------------|
G|--0--2--0------0--0--2--0--2--4--5--7--0--0----0--0--0----0--2--4--5--7---0--3--0----------------------------|
D|--2--2--2p0h2--2--2--2--2--2--4--5--7--2--0h2--2--2--2----2--2--4--5--7---2--2--2------------3---------------|
A|--2--0--2------0--2--0--2--0--0--0--0--2--2----2--2--0h2--2--0--0--0--0---2--2--2----------------------------|
E|--0--x--0------0--0--x--x--x--x--x--x--x--x----x--x--x----x--x--x--x--x---0--x--0---3bp0-slap----------------|

VERSE second time around:

Same thing, but slight strumming instead of picking...


Chorus: basically the same thing, you'll figure it out.


So take my strong advice... and remember to always think twice, do think twice!
E|--0--0--5--7--0--0--0----------------------------------------------------------------------------------------|
B|--1--3--5--7--0--0--0----------------------------------------------------------------------------------------|
G|--2--4--5--7--0--3--0----------------------------------------------------------------------------------------|
D|--2--4--5--7--2--2--2----------------------------------------------------------------------------------------|
A|--0--0--0--0--2--2--2----------------------------------------------------------------------------------------|
E|--x--x--x--x--0--0--0----------------------------------------------------------------------------------------|
Добавлено: 21.07.2015
Другие материалы по этой песне:
  • Аккорды и текст

Страница создана 26.05.2012
http://primanota.ru/chris-cornell/billie-jean-live-chords.htm
Привет, Гость.
Предлагаем пройти революционный курс по гитаре.
Подарок от PrimaNota.Ru, забирай!