PrimaNota.ru - самый крупный в мире бесплатный архив песенных текстов, аккордов, табулатур и нот


Children Of Bodom - Trashed Lost And Stungout - бас-таба, видео

Регистрация Запомнить меня
Войти через:  Facebook Google Twitter Vk Yandex Mail.ru

Children Of Bodom - Trashed Lost And Stungout - бас-таба, видео

Печатать
Просмотров: 115
Children of Bodom
Trashed, Lost and Strungout (Bass)
Tabbed By Kevin Cruz
Originally from Taborama.com

Tunning: C G C F

F|-------|-------|
C|-------|-------|
G|-------|-------|  X4
C|0-0-0-0|2-2-2-2|

F|-----|---|
C|-----|---|
G|-----|---| X4
C|4-2-4|0-2|

F|--|--------------|-------------|---------------|-------|--------------|
C|--|--------------|-------------|---------------|-------|--------------|
G|--|--------------|-------------|-------------3~|-------|--------------|
C|6~|0-0-0--0-0-6-3|0-0-2-3-0-0-5|0-0-0--0-0-0---|3-3-3-0|0-0-0--0-0-6-3|

F|-------------|---------------|-----|------|-----|
C|-------------|---------------|-----|------|-----|
G|-------------|-------------3~|-----|3-3-3~|3-3-4|
C|0-0-2-3-0-0-5|0-0-0--0-0-0---|3-3-3|------|-----|

F|---------------|---------------|------|-----|
C|---------------|---------------|------|-----|
G|5-5-5-5-5-5-5-5|3-3-3-3-5-5-5-5|3-3-3~|3-3-4|
C|---------------|---------------|------|-----|

F|---------------|---------------|
C|---------------|---------------|
G|--------5-5-5-5|---------------|
C|0-0-0-0--------|0-0-2-3-0-0-6-5|

F|--------------|-------------|---------------|
C|--------------|-------------|---------------|
G|--------------|-------------|-------------3~|
C|0-0-0--0-0-6-3|0-0-2-3-0-0-5|0-0-0--0-0-0---|

F|-------|--------------|-------------|
C|-------|--------------|-------------|
G|-------|--------------|-------------|
C|3-3-3-0|0-0-0--0-0-6-3|0-0-2-3-0-0-5|

F|---------------|-----|-----|-----|
C|---------------|-----|-----|-----|
G|-------------3~|-----|3-3-3|3-3-4|
C|0-0-0--0-0-0---|3-3-3|-----|-----|

F|-----------------|---------------|
C|-----------------|---------------|
G|5-5-5-5-5-5-5-5-5|3-3-3-3-5-5-5-5|
C|-----------------|---------------|

F|------|-----|---------------|---------------|---------------|
C|------|-----|---------------|---------------|---------------|
G|3-3-3~|3-3-4|--------5-5-5-5|---------------|---------------|
C|------|-----|0-0-0-0--------|6-6-6-6-6-6-5-5|4-4-4-4-2-2-2-2|

F|---------------|-----|---|-----|---|-----|---|-----|---|
C|---------------|-----|---|-----|---|-----|---|-----|---|
G|---------------|-----|---|-----|---|-----|---|-----|---|
C|7-7-7-7-9-9-9-9|7-5-7|3-5|7-5-7|3-5|7-5-7|3-5|7-5-7|3-5|

F|-------------|---------------|-------|--------------|
C|-------------|---------------|-------|--------------|
G|-------------|-------------3~|-------|--------------|
C|0-0-2-3-0-0-5|0-0-0--0-0-0---|3-3-3-0|0-0-0--0-0-6-3|

F|-------------|---------------|-------------|
C|-------------|---------------|-------------|
G|-------------|-------------4~|4-4-4-4-4-4-5|
C|0-0-2-3-0-0-5|0-0-0--0-0-0---|-------------|

F|--------------|-------------|---------------|
C|--------------|-------------|---------------|
G|--------------|-------------|-------------3~|
C|0-0-0--0-0-6-3|0-0-2-3-0-0-5|0-0-0--0-0-0---|

F|-------|--------------|-------------|---------------|
C|-------|--------------|-------------|---------------|
G|-------|--------------|-------------|--------5-5-5-5|
C|3-3-3-0|0-0-0--0-0-6-3|0-0-2-3-0-0-5|0-0-0-0--------|

F|---------------|---------------|---------------|
C|---------------|---------------|---------------|
G|---------------|---------------|---------------|
C|6-6-6-6-6-6-5-5|4-4-4-4-2-2-2-2|7-7-7-7-9-9-9-9|

F|----|---|---|---|----|---|---|---|----|---|---|---|----|
C|----|---|---|---|----|---|---|---|----|---|---|---|----|
G|----|---|---|---|----|---|---|---|----|---|---|---|----|
C|7-10|3-5|7-5|3-2|7-10|3-5|7-5|3-2|7-10|3-5|7-5|3-2|7-10|

F|---|---|---|--|
C|---|---|---|--|
G|---|---|---|--|
C|3-5|7-5|3-2|2~|

F|---------------|
C|---------------|
G|---------------|  X8
C|2-2-2-2-2-2-2-2|

F|---------------|-------------|---------------|-------------|
C|---------------|-------------|---------------|-------------|
G|---------------|-------------|---------------|-------------|
C|3-2-2-3-2-2-3-2|3-2-6-5-3-2-1|3-2-2-3-2-2-3-2|3-2-6-5-3-2-1|

F|---------------|-------------|-------------|
C|---------------|-------------|-------------|
G|---------------|-------------|-------------|
C|3-2-2-3-2-2-3-2|3-2-6-5-3-2-1|3-2--3-2--3-2|

F|-----------|-----|---|-----|---|-----|---|-----|---|
C|-----------|-----|---|-----|---|-----|---|-----|---|
G|-----------|-----|---|-----|---|-----|---|-----|---|
C|2-6-5-3-2-1|9-7-9|5-7|9-7-9|5-7|9-7-9|5-7|9-7-9|5-7|

F|--|--|--|-|--|--|--|--|-----|---|
C|--|--|--|-|--|--|--|--|-----|---|
G|4~|0~|4~|7|3~|5~|1~|3~|5-3-5|1-3|
C|--|--|--|-|--|--|--|--|-----|---|

F|------|-----|-------------------|---------------|
C|------|-----|-------------------|---------------|
G|3-3-3~|3-3-4|5-5-5-5-5-5-5-5-5-5|3-3-3-3-5-5-5-5|  X3
C|------|-----|-------------------|---------------|

F|------|-----|-------|-------|-------|-------|
C|------|-----|-------|-------|-------|-------|
G|3-4-5~|6-7-8|5-5-4-4|8-8-8-7|5-5-4-4|8-8-8-7|
C|------|-----|-------|-------|-------|-------|

F|-------|-------|-------|-----------|
C|-------|-------|-------|-----------|
G|5-5-4-4|8-8-8-7|9-9-7-7|12-12-12-11|
C|-------|-------|-------|-----------|

F|----|---|---|---|----|---|---|---|----|---|---|---|----|
C|----|---|---|---|----|---|---|---|----|---|---|---|----|
G|----|---|---|---|----|---|---|---|----|---|---|---|----|
C|7-10|3-5|7-5|3-2|7-10|3-5|7-5|3-2|7-10|3-5|7-5|3-2|7-10|

F|---|---|---|
C|---|---|---|
G|---|---|---|
C|3-5|7-5|3-2|

F|-------|
C|-------|
G|-------|   X6
C|0-0-0-0|

F|--|---|
C|--|---|
G|--|---|
C|0~|12~|
Добавлено: 02.05.2012
Другие материалы по этой песне:
  • Аккорды и текст

Страница создана 02.05.2012
http://primanota.ru/children-of-bodom/trashed-lost-and-stungout-chords.htm
Привет, Гость.
Предлагаем пройти революционный курс по гитаре.
Подарок от PrimaNota.Ru, забирай!